  0
SECTION
  2
HEADER
  9
$ACADVER
  1
AC1009
  0
ENDSEC
  0
SECTION
  2
ENTITIES
  0
POLYLINE
  5
90
  8
Layer_1
  62
5
  66
1
  10
0
  20
0
  30
0
  0
VERTEX
  5
90
  8
Layer_1
  10
294.89539
  20
35.190002
  0
VERTEX
  5
91
  8
Layer_1
  10
295.064
  20
35.199829
  0
VERTEX
  5
92
  8
Layer_1
  10
295.23218
  20
35.216187
  0
VERTEX
  5
93
  8
Layer_1
  10
295.39951
  20
35.238892
  0
VERTEX
  5
94
  8
Layer_1
  10
295.56561
  20
35.268372
  0
VERTEX
  5
95
  8
Layer_1
  10
295.73068
  20
35.303955
  0
VERTEX
  5
96
  8
Layer_1
  10
295.89407
  20
35.346069
  0
VERTEX
  5
97
  8
Layer_1
  10
296.05557
  20
35.394592
  0
VERTEX
  5
98
  8
Layer_1
  10
296.215
  20
35.448975
  0
VERTEX
  5
99
  8
Layer_1
  10
296.37213
  20
35.509766
  0
VERTEX
  5
9a
  8
Layer_1
  10
296.52673
  20
35.57666
  0
VERTEX
  5
9b
  8
Layer_1
  10
296.67844
  20
35.649292
  0
VERTEX
  5
9c
  8
Layer_1
  10
296.82721
  20
35.727844
  0
VERTEX
  5
9d
  8
Layer_1
  10
296.97266
  20
35.812134
  0
VERTEX
  5
9e
  8
Layer_1
  10
297.11456
  20
35.901978
  0
VERTEX
  5
9f
  8
Layer_1
  10
297.25269
  20
35.99707
  0
VERTEX
  5
a0
  8
Layer_1
  10
297.38708
  20
36.097717
  0
VERTEX
  5
a1
  8
Layer_1
  10
297.51709
  20
36.203308
  0
VERTEX
  5
a2
  8
Layer_1
  10
297.64291
  20
36.313965
  0
VERTEX
  5
a3
  8
Layer_1
  10
297.76392
  20
36.429382
  0
VERTEX
  5
a4
  8
Layer_1
  10
297.88037
  20
36.549255
  0
VERTEX
  5
a5
  8
Layer_1
  10
297.992
  20
36.673645
  0
VERTEX
  5
a6
  8
Layer_1
  10
298.09842
  20
36.802368
  0
VERTEX
  5
a7
  8
Layer_1
  10
298.1994
  20
36.934937
  0
VERTEX
  5
a8
  8
Layer_1
  10
298.2952
  20
37.071594
  0
VERTEX
  5
a9
  8
Layer_1
  10
298.38535
  20
37.211548
  0
VERTEX
  5
aa
  8
Layer_1
  10
298.46964
  20
37.354919
  0
VERTEX
  5
ab
  8
Layer_1
  10
298.54831
  20
37.501648
  0
VERTEX
  5
ac
  8
Layer_1
  10
298.62091
  20
37.651184
  0
VERTEX
  5
ad
  8
Layer_1
  10
298.68729
  20
37.803406
  0
VERTEX
  5
ae
  8
Layer_1
  10
298.74759
  20
37.958069
  0
VERTEX
  5
af
  8
Layer_1
  10
298.80164
  20
38.11499
  0
VERTEX
  5
b0
  8
Layer_1
  10
298.84943
  20
38.273926
  0
VERTEX
  5
b1
  8
Layer_1
  10
298.89053
  20
38.434509
  0
VERTEX
  5
b2
  8
Layer_1
  10
298.92538
  20
38.596558
  0
VERTEX
  5
b3
  8
Layer_1
  10
298.95355
  20
38.759827
  0
VERTEX
  5
b4
  8
Layer_1
  10
298.97504
  20
38.924133
  0
VERTEX
  5
b5
  8
Layer_1
  10
298.99005
  20
39.088989
  0
VERTEX
  5
b6
  8
Layer_1
  10
298.9982
  20
39.254517
  0
VERTEX
  5
b7
  8
Layer_1
  10
299.00006
  20
39.376648
  0
VERTEX
  5
b8
  8
Layer_1
  10
299.00006
  20
180.99683
  0
VERTEX
  5
b9
  8
Layer_1
  10
298.99673
  20
181.16235
  0
VERTEX
  5
ba
  8
Layer_1
  10
298.98672
  20
181.32764
  0
VERTEX
  5
bb
  8
Layer_1
  10
298.97003
  20
181.49255
  0
VERTEX
  5
bc
  8
Layer_1
  10
298.94687
  20
181.65662
  0
VERTEX
  5
bd
  8
Layer_1
  10
298.91681
  20
181.81946
  0
VERTEX
  5
be
  8
Layer_1
  10
298.88049
  20
181.98126
  0
VERTEX
  5
bf
  8
Layer_1
  10
298.83752
  20
182.14148
  0
VERTEX
  5
c0
  8
Layer_1
  10
298.78806
  20
182.29987
  0
VERTEX
  5
c1
  8
Layer_1
  10
298.73257
  20
182.45612
  0
VERTEX
  5
c2
  8
Layer_1
  10
298.67059
  20
182.61017
  0
VERTEX
  5
c3
  8
Layer_1
  10
298.60236
  20
182.76178
  0
VERTEX
  5
c4
  8
Layer_1
  10
298.52829
  20
182.91052
  0
VERTEX
  5
c5
  8
Layer_1
  10
298.44815
  20
183.0564
  0
VERTEX
  5
c6
  8
Layer_1
  10
298.36218
  20
183.19897
  0
VERTEX
  5
c7
  8
Layer_1
  10
298.27057
  20
183.33813
  0
VERTEX
  5
c8
  8
Layer_1
  10
298.17355
  20
183.47357
  0
VERTEX
  5
c9
  8
Layer_1
  10
298.07089
  20
183.60529
  0
VERTEX
  5
ca
  8
Layer_1
  10
297.9632
  20
183.73273
  0
VERTEX
  5
cb
  8
Layer_1
  10
297.85031
  20
183.85614
  0
VERTEX
  5
cc
  8
Layer_1
  10
297.73264
  20
183.97479
  0
VERTEX
  5
cd
  8
Layer_1
  10
297.61035
  20
184.08893
  0
VERTEX
  5
ce
  8
Layer_1
  10
297.48349
  20
184.19843
  0
VERTEX
  5
cf
  8
Layer_1
  10
297.35223
  20
184.30273
  0
VERTEX
  5
d0
  8
Layer_1
  10
297.21701
  20
184.40179
  0
VERTEX
  5
d1
  8
Layer_1
  10
297.07764
  20
184.49567
  0
VERTEX
  5
d2
  8
Layer_1
  10
296.93491
  20
184.58405
  0
VERTEX
  5
d3
  8
Layer_1
  10
296.7886
  20
184.66669
  0
VERTEX
  5
d4
  8
Layer_1
  10
296.63901
  20
184.74384
  0
VERTEX
  5
d5
  8
Layer_1
  10
296.48648
  20
184.815
  0
VERTEX
  5
d6
  8
Layer_1
  10
296.33121
  20
184.88007
  0
VERTEX
  5
d7
  8
Layer_1
  10
296.17346
  20
184.93921
  0
VERTEX
  5
d8
  8
Layer_1
  10
296.01343
  20
184.99219
  0
VERTEX
  5
d9
  8
Layer_1
  10
295.85129
  20
185.03906
  0
VERTEX
  5
da
  8
Layer_1
  10
295.68747
  20
185.07935
  0
VERTEX
  5
db
  8
Layer_1
  10
295.52222
  20
185.11353
  0
VERTEX
  5
dc
  8
Layer_1
  10
295.35571
  20
185.14117
  0
VERTEX
  5
dd
  8
Layer_1
  10
295.18814
  20
185.16223
  0
VERTEX
  5
de
  8
Layer_1
  10
295.01996
  20
185.17694
  0
VERTEX
  5
df
  8
Layer_1
  10
294.85114
  20
185.18494
  0
VERTEX
  5
e0
  8
Layer_1
  10
294.72656
  20
185.18677
  0
VERTEX
  5
e1
  8
Layer_1
  10
103.27351
  20
185.18677
  0
VERTEX
  5
e2
  8
Layer_1
  10
103.10469
  20
185.18347
  0
VERTEX
  5
e3
  8
Layer_1
  10
102.9361
  20
185.17365
  0
VERTEX
  5
e4
  8
Layer_1
  10
102.76791
  20
185.15729
  0
VERTEX
  5
e5
  8
Layer_1
  10
102.60056
  20
185.13458
  0
VERTEX
  5
e6
  8
Layer_1
  10
102.43446
  20
185.10516
  0
VERTEX
  5
e7
  8
Layer_1
  10
102.2694
  20
185.06952
  0
VERTEX
  5
e8
  8
Layer_1
  10
102.10601
  20
185.0274
  0
VERTEX
  5
e9
  8
Layer_1
  10
101.94451
  20
184.97894
  0
VERTEX
  5
ea
  8
Layer_1
  10
101.78508
  20
184.9245
  0
VERTEX
  5
eb
  8
Layer_1
  10
101.62796
  20
184.86371
  0
VERTEX
  5
ec
  8
Layer_1
  10
101.47334
  20
184.79681
  0
VERTEX
  5
ed
  8
Layer_1
  10
101.32164
  20
184.72418
  0
VERTEX
  5
ee
  8
Layer_1
  10
101.17287
  20
184.64563
  0
VERTEX
  5
ef
  8
Layer_1
  10
101.02742
  20
184.56134
  0
VERTEX
  5
f0
  8
Layer_1
  10
100.88552
  20
184.4715
  0
VERTEX
  5
f1
  8
Layer_1
  10
100.74738
  20
184.3764
  0
VERTEX
  5
f2
  8
Layer_1
  10
100.61301
  20
184.27576
  0
VERTEX
  5
f3
  8
Layer_1
  10
100.48302
  20
184.17017
  0
VERTEX
  5
f4
  8
Layer_1
  10
100.35717
  20
184.05951
  0
VERTEX
  5
f5
  8
Layer_1
  10
100.23615
  20
183.94409
  0
VERTEX
  5
f6
  8
Layer_1
  10
100.11971
  20
183.82422
  0
VERTEX
  5
f7
  8
Layer_1
  10
100.00809
  20
183.69983
  0
VERTEX
  5
f8
  8
Layer_1
  10
99.901657
  20
183.57111
  0
VERTEX
  5
f9
  8
Layer_1
  10
99.800667
  20
183.43854
  0
VERTEX
  5
fa
  8
Layer_1
  10
99.70488
  20
183.30194
  0
VERTEX
  5
fb
  8
Layer_1
  10
99.614746
  20
183.16199
  0
VERTEX
  5
fc
  8
Layer_1
  10
99.530441
  20
183.01855
  0
VERTEX
  5
fd
  8
Layer_1
  10
99.451775
  20
182.87189
  0
VERTEX
  5
fe
  8
Layer_1
  10
99.37915
  20
182.72229
  0
VERTEX
  5
ff
  8
Layer_1
  10
99.31279
  20
182.57013
  0
VERTEX
  5
100
  8
Layer_1
  10
99.252495
  20
182.41547
  0
VERTEX
  5
101
  8
Layer_1
  10
99.198441
  20
182.25848
  0
VERTEX
  5
102
  8
Layer_1
  10
99.150665
  20
182.09955
  0
VERTEX
  5
103
  8
Layer_1
  10
99.10955
  20
181.93896
  0
VERTEX
  5
104
  8
Layer_1
  10
99.074715
  20
181.77692
  0
VERTEX
  5
105
  8
Layer_1
  10
99.046547
  20
181.61365
  0
VERTEX
  5
106
  8
Layer_1
  10
99.02504
  20
181.4494
  0
VERTEX
  5
107
  8
Layer_1
  10
99.010025
  20
181.28448
  0
VERTEX
  5
108
  8
Layer_1
  10
99.001884
  20
181.11896
  0
VERTEX
  5
109
  8
Layer_1
  10
99
  20
180.99683
  0
VERTEX
  5
10a
  8
Layer_1
  10
99
  20
39.376648
  0
VERTEX
  5
10b
  8
Layer_1
  10
99.003357
  20
39.211182
  0
VERTEX
  5
10c
  8
Layer_1
  10
99.013367
  20
39.045837
  0
VERTEX
  5
10d
  8
Layer_1
  10
99.030052
  20
38.88092
  0
VERTEX
  5
10e
  8
Layer_1
  10
99.053215
  20
38.716858
  0
VERTEX
  5
10f
  8
Layer_1
  10
99.083267
  20
38.554016
  0
VERTEX
  5
110
  8
Layer_1
  10
99.119576
  20
38.392212
  0
VERTEX
  5
111
  8
Layer_1
  10
99.162567
  20
38.231995
  0
VERTEX
  5
112
  8
Layer_1
  10
99.212013
  20
38.073669
  0
VERTEX
  5
113
  8
Layer_1
  10
99.267517
  20
37.917358
  0
VERTEX
  5
114
  8
Layer_1
  10
99.329491
  20
37.763306
  0
VERTEX
  5
115
  8
Layer_1
  10
99.39772
  20
37.611694
  0
VERTEX
  5
116
  8
Layer_1
  10
99.471802
  20
37.462952
  0
VERTEX
  5
117
  8
Layer_1
  10
99.551933
  20
37.317078
  0
VERTEX
  5
118
  8
Layer_1
  10
99.637901
  20
37.1745
  0
VERTEX
  5
119
  8
Layer_1
  10
99.7295
  20
37.035339
  0
VERTEX
  5
11a
  8
Layer_1
  10
99.82653
  20
36.899902
  0
VERTEX
  5
11b
  8
Layer_1
  10
99.929207
  20
36.768188
  0
VERTEX
  5
11c
  8
Layer_1
  10
100.03687
  20
36.640747
  0
VERTEX
  5
11d
  8
Layer_1
  10
100.14977
  20
36.517334
  0
VERTEX
  5
11e
  8
Layer_1
  10
100.26744
  20
36.398682
  0
VERTEX
  5
11f
  8
Layer_1
  10
100.38973
  20
36.284546
  0
VERTEX
  5
120
  8
Layer_1
  10
100.5166
  20
36.17511
  0
VERTEX
  5
121
  8
Layer_1
  10
100.64785
  20
36.07074
  0
VERTEX
  5
122
  8
Layer_1
  10
100.78307
  20
35.971741
  0
VERTEX
  5
123
  8
Layer_1
  10
100.92246
  20
35.877808
  0
VERTEX
  5
124
  8
Layer_1
  10
101.06519
  20
35.789429
  0
VERTEX
  5
125
  8
Layer_1
  10
101.21146
  20
35.706787
  0
VERTEX
  5
126
  8
Layer_1
  10
101.36108
  20
35.629639
  0
VERTEX
  5
127
  8
Layer_1
  10
101.51361
  20
35.558472
  0
VERTEX
  5
128
  8
Layer_1
  10
101.66886
  20
35.493408
  0
VERTEX
  5
129
  8
Layer_1
  10
101.82661
  20
35.434265
  0
VERTEX
  5
12a
  8
Layer_1
  10
101.98666
  20
35.381287
  0
VERTEX
  5
12b
  8
Layer_1
  10
102.1488
  20
35.334412
  0
VERTEX
  5
12c
  8
Layer_1
  10
102.31261
  20
35.294128
  0
VERTEX
  5
12d
  8
Layer_1
  10
102.47787
  20
35.259949
  0
VERTEX
  5
12e
  8
Layer_1
  10
102.64439
  20
35.232361
  0
VERTEX
  5
12f
  8
Layer_1
  10
102.81194
  20
35.211243
  0
VERTEX
  5
130
  8
Layer_1
  10
102.98013
  20
35.196533
  0
VERTEX
  5
131
  8
Layer_1
  10
103.14893
  20
35.188538
  0
VERTEX
  5
132
  8
Layer_1
  10
103.27351
  20
35.186707
  0
VERTEX
  5
133
  8
Layer_1
  10
294.72656
  20
35.186707
  0
VERTEX
  5
134
  8
Layer_1
  10
294.89539
  20
35.190002
  0
SEQEND
  0
CIRCLE
  5
136
  8
Layer_1
  62
5
  10
202.35004
  20
62.6586
  30
0
  40
1.4999995
  0
CIRCLE
  5
136
  8
Layer_1
  62
5
  10
192.5369
  20
60.713531
  30
0
  40
0.24999993
  0
CIRCLE
  5
136
  8
Layer_1
  62
5
  10
190.36011
  20
60.371552
  30
0
  40
0.24999993
  0
CIRCLE
  5
136
  8
Layer_1
  62
5
  10
185.94345
  20
60.371552
  30
0
  40
0.24999993
  0
CIRCLE
  5
136
  8
Layer_1
  62
5
  10
188.36011
  20
60.371552
  30
0
  40
0.24999993
  0
CIRCLE
  5
136
  8
Layer_1
  62
5
  10
183.58728
  20
60.371552
  30
0
  40
0.24999993
  0
CIRCLE
  5
136
  8
Layer_1
  62
5
  10
181.29108
  20
60.371552
  30
0
  40
0.24999993
  0
CIRCLE
  5
136
  8
Layer_1
  62
5
  10
179.6572
  20
59.363388
  30
0
  40
0.24999993
  0
CIRCLE
  5
136
  8
Layer_1
  62
5
  10
178.08789
  20
58.201889
  30
0
  40
0.24999993
  0
CIRCLE
  5
136
  8
Layer_1
  62
5
  10
176.99429
  20
56.375168
  30
0
  40
0.24999993
  0
CIRCLE
  5
136
  8
Layer_1
  62
5
  10
176.50052
  20
54.556992
  30
0
  40
0.24999993
  0
CIRCLE
  5
136
  8
Layer_1
  62
5
  10
176.86691
  20
52.543625
  30
0
  40
0.24999993
  0
CIRCLE
  5
136
  8
Layer_1
  62
5
  10
177.44345
  20
50.767014
  30
0
  40
0.24999993
  0
CIRCLE
  5
136
  8
Layer_1
  62
5
  10
178.58994
  20
49.371567
  30
0
  40
0.24999993
  0
CIRCLE
  5
136
  8
Layer_1
  62
5
  10
180.36691
  20
48.015305
  30
0
  40
0.24999993
  0
CIRCLE
  5
136
  8
Layer_1
  62
5
  10
182.47665
  20
47.62291
  30
0
  40
0.24999993
  0
CIRCLE
  5
136
  8
Layer_1
  62
5
  10
184.57742
  20
47.62291
  30
0
  40
0.24999993
  0
CIRCLE
  5
136
  8
Layer_1
  62
5
  10
186.69986
  20
47.62291
  30
0
  40
0.24999993
  0
CIRCLE
  5
136
  8
Layer_1
  62
5
  10
188.59607
  20
47.62291
  30
0
  40
0.24999993
  0
CIRCLE
  5
136
  8
Layer_1
  62
5
  10
190.65381
  20
47.62291
  30
0
  40
0.24999993
  0
CIRCLE
  5
136
  8
Layer_1
  62
5
  10
192.82608
  20
47.018417
  30
0
  40
0.24999993
  0
CIRCLE
  5
136
  8
Layer_1
  62
5
  10
194.09937
  20
45.551376
  30
0
  40
0.24999993
  0
CIRCLE
  5
136
  8
Layer_1
  62
5
  10
195.82584
  20
44.348557
  30
0
  40
0.24999993
  0
CIRCLE
  5
136
  8
Layer_1
  62
5
  10
197.76306
  20
43.297653
  30
0
  40
0.24999993
  0
CIRCLE
  5
136
  8
Layer_1
  62
5
  10
200.12375
  20
42.709396
  30
0
  40
0.24999993
  0
CIRCLE
  5
136
  8
Layer_1
  62
5
  10
211.4501
  20
61.37381
  30
0
  40
0.24999993
  0
CIRCLE
  5
136
  8
Layer_1
  62
5
  10
211.4584
  20
47.076218
  30
0
  40
0.24999993
  0
CIRCLE
  5
136
  8
Layer_1
  62
5
  10
204.16074
  20
42.767258
  30
0
  40
0.24999993
  0
CIRCLE
  5
136
  8
Layer_1
  62
5
  10
206.52139
  20
43.355453
  30
0
  40
0.24999993
  0
CIRCLE
  5
136
  8
Layer_1
  62
5
  10
208.45865
  20
44.406418
  30
0
  40
0.24999993
  0
CIRCLE
  5
136
  8
Layer_1
  62
5
  10
210.18512
  20
45.609177
  30
0
  40
0.24999993
  0
CIRCLE
  5
136
  8
Layer_1
  62
5
  10
202.11179
  20
42.58403
  30
0
  40
0.24999993
  0
CIRCLE
  5
136
  8
Layer_1
  62
5
  10
202.35004
  20
45.639206
  30
0
  40
1.4999995
  0
CIRCLE
  5
136
  8
Layer_1
  62
5
  10
213.64471
  20
60.442291
  30
0
  40
0.24999993
  0
CIRCLE
  5
136
  8
Layer_1
  62
5
  10
218.06137
  20
60.442291
  30
0
  40
0.24999993
  0
CIRCLE
  5
136
  8
Layer_1
  62
5
  10
215.64471
  20
60.442291
  30
0
  40
0.24999993
  0
CIRCLE
  5
136
  8
Layer_1
  62
5
  10
220.41754
  20
60.442291
  30
0
  40
0.24999993
  0
CIRCLE
  5
136
  8
Layer_1
  62
5
  10
222.71371
  20
60.442291
  30
0
  40
0.24999993
  0
CIRCLE
  5
136
  8
Layer_1
  62
5
  10
224.34766
  20
59.434128
  30
0
  40
0.24999993
  0
CIRCLE
  5
136
  8
Layer_1
  62
5
  10
225.91696
  20
58.272629
  30
0
  40
0.24999993
  0
CIRCLE
  5
136
  8
Layer_1
  62
5
  10
227.01056
  20
56.445969
  30
0
  40
0.24999993
  0
CIRCLE
  5
136
  8
Layer_1
  62
5
  10
227.50433
  20
54.627731
  30
0
  40
0.24999993
  0
CIRCLE
  5
136
  8
Layer_1
  62
5
  10
227.13794
  20
52.614365
  30
0
  40
0.24999993
  0
CIRCLE
  5
136
  8
Layer_1
  62
5
  10
226.5614
  20
50.837814
  30
0
  40
0.24999993
  0
CIRCLE
  5
136
  8
Layer_1
  62
5
  10
225.41492
  20
49.442307
  30
0
  40
0.24999993
  0
CIRCLE
  5
136
  8
Layer_1
  62
5
  10
223.63794
  20
48.086105
  30
0
  40
0.24999993
  0
CIRCLE
  5
136
  8
Layer_1
  62
5
  10
221.52817
  20
47.693649
  30
0
  40
0.24999993
  0
CIRCLE
  5
136
  8
Layer_1
  62
5
  10
219.42737
  20
47.693649
  30
0
  40
0.24999993
  0
CIRCLE
  5
136
  8
Layer_1
  62
5
  10
217.30496
  20
47.693649
  30
0
  40
0.24999993
  0
CIRCLE
  5
136
  8
Layer_1
  62
5
  10
215.40875
  20
47.693649
  30
0
  40
0.24999993
  0
CIRCLE
  5
136
  8
Layer_1
  62
5
  10
213.35101
  20
47.693649
  30
0
  40
0.24999993
  0
CIRCLE
  5
136
  8
Layer_1
  62
5
  10
221.76083
  20
54.406326
  30
0
  40
0.9999997
  0
CIRCLE
  5
136
  8
Layer_1
  62
5
  10
183.21341
  20
54.379715
  30
0
  40
0.9999997
  0
POLYLINE
  5
136
  8
Layer_1
  62
5
  66
1
  10
0
  20
0
  30
0
  0
VERTEX
  5
136
  8
Layer_1
  10
201.41653
  20
67.158875
  42
0.14918915
  0
VERTEX
  5
137
  8
Layer_1
  10
194.2366
  20
64.574554
  42
0.065910064
  0
VERTEX
  5
138
  8
Layer_1
  10
191.81503
  20
62.20932
  0
VERTEX
  5
139
  8
Layer_1
  10
190.1707
  20
62.20932
  0
VERTEX
  5
13a
  8
Layer_1
  10
188.52687
  20
62.20932
  0
VERTEX
  5
13b
  8
Layer_1
  10
186.88252
  20
62.20932
  0
VERTEX
  5
13c
  8
Layer_1
  10
185.23871
  20
62.20932
  0
VERTEX
  5
13d
  8
Layer_1
  10
182.84607
  20
62.20932
  0
VERTEX
  5
13e
  8
Layer_1
  10
182.84607
  20
62.174179
  0
VERTEX
  5
13f
  8
Layer_1
  10
182.52362
  20
62.166428
  42
0.39934707
  0
VERTEX
  5
140
  8
Layer_1
  10
174.84605
  20
54.082672
  42
0.23006064
  0
VERTEX
  5
141
  8
Layer_1
  10
177.93785
  20
47.717178
  42
0.15506825
  0
VERTEX
  5
142
  8
Layer_1
  10
182.52362
  20
45.998428
  0
VERTEX
  5
143
  8
Layer_1
  10
182.84607
  20
45.990677
  0
VERTEX
  5
144
  8
Layer_1
  10
182.84607
  20
45.955536
  0
VERTEX
  5
145
  8
Layer_1
  10
191.80676
  20
45.955536
  0
VERTEX
  5
146
  8
Layer_1
  10
191.96542
  20
45.754501
  0
VERTEX
  5
147
  8
Layer_1
  10
191.96542
  20
45.752396
  42
0.1947749
  0
VERTEX
  5
148
  8
Layer_1
  10
200.59021
  20
41.07309
  42
-0.18499307
  0
VERTEX
  5
149
  8
Layer_1
  10
200.51736
  20
41.270493
  42
-0.01581348
  0
VERTEX
  5
14a
  8
Layer_1
  10
199.71689
  20
41.3909
  42
-0.029059025
  0
VERTEX
  5
14b
  8
Layer_1
  10
198.26425
  20
41.748505
  42
-0.028940391
  0
VERTEX
  5
14c
  8
Layer_1
  10
196.86693
  20
42.269394
  42
-0.028938445
  0
VERTEX
  5
14d
  8
Layer_1
  10
195.53885
  20
42.948944
  42
-0.02905102
  0
VERTEX
  5
14e
  8
Layer_1
  10
194.29498
  20
43.779388
  42
-0.029266994
  0
VERTEX
  5
14f
  8
Layer_1
  10
193.14828
  20
44.756073
  42
-0.029530335
  0
VERTEX
  5
150
  8
Layer_1
  10
192.11374
  20
45.871246
  0
VERTEX
  5
151
  8
Layer_1
  10
192.11162
  20
45.873367
  0
VERTEX
  5
152
  8
Layer_1
  10
191.89871
  20
46.145187
  0
VERTEX
  5
153
  8
Layer_1
  10
189.68231
  20
46.145187
  0
VERTEX
  5
154
  8
Layer_1
  10
187.46591
  20
46.145187
  0
VERTEX
  5
155
  8
Layer_1
  10
185.25002
  20
46.145187
  0
VERTEX
  5
156
  8
Layer_1
  10
183.03362
  20
46.145187
  0
VERTEX
  5
157
  8
Layer_1
  10
183.03362
  20
46.174118
  0
VERTEX
  5
158
  8
Layer_1
  10
182.52977
  20
46.188065
  42
-0.15493937
  0
VERTEX
  5
159
  8
Layer_1
  10
178.05511
  20
47.865479
  42
-0.23005244
  0
VERTEX
  5
15a
  8
Layer_1
  10
175.03358
  20
54.082672
  42
-0.3992103
  0
VERTEX
  5
15b
  8
Layer_1
  10
182.52977
  20
61.976776
  0
VERTEX
  5
15c
  8
Layer_1
  10
182.53339
  20
61.976776
  0
VERTEX
  5
15d
  8
Layer_1
  10
183.03363
  20
61.990723
  0
VERTEX
  5
15e
  8
Layer_1
  10
183.03363
  20
62.020172
  0
VERTEX
  5
15f
  8
Layer_1
  10
185.23865
  20
62.020172
  0
VERTEX
  5
160
  8
Layer_1
  10
191.89871
  20
62.020172
  0
VERTEX
  5
161
  8
Layer_1
  10
191.92816
  20
62.056854
  42
-0.066939926
  0
VERTEX
  5
162
  8
Layer_1
  10
194.34818
  20
64.424164
  42
-0.048890683
  0
VERTEX
  5
163
  8
Layer_1
  10
196.51239
  20
65.734161
  42
-0.04806238
  0
VERTEX
  5
164
  8
Layer_1
  10
198.82233
  20
66.577515
  42
-0.04709516
  0
VERTEX
  5
165
  8
Layer_1
  10
201.21185
  20
66.962494
  42
-0.0059366396
  0
VERTEX
  5
166
  8
Layer_1
  10
201.51984
  20
66.975952
  42
-0.0073939992
  0
VERTEX
  5
167
  8
Layer_1
  10
201.51257
  20
66.996613
  42
-0.0024627069
  0
VERTEX
  5
168
  8
Layer_1
  10
201.51152
  20
67.00592
  42
-0.15040615
  0
VERTEX
  5
169
  8
Layer_1
  10
201.41644
  20
67.158875
  0
VERTEX
  5
16a
  8
Layer_1
  10
201.41653
  20
67.158875
  0
SEQEND
  0
POLYLINE
  5
16c
  8
Layer_1
  62
5
  66
1
  10
0
  20
0
  30
0
  0
VERTEX
  5
16c
  8
Layer_1
  10
203.33734
  20
67.112366
  42
-0.17873712
  0
VERTEX
  5
16d
  8
Layer_1
  10
203.3699
  20
66.921173
  42
-0.0048741935
  0
VERTEX
  5
16e
  8
Layer_1
  10
203.61432
  20
66.8974
  42
-0.046473243
  0
VERTEX
  5
16f
  8
Layer_1
  10
205.96353
  20
66.389954
  42
-0.047084734
  0
VERTEX
  5
170
  8
Layer_1
  10
208.19337
  20
65.447891
  42
-0.048051612
  0
VERTEX
  5
171
  8
Layer_1
  10
210.23666
  20
64.080017
  42
-0.048892286
  0
VERTEX
  5
172
  8
Layer_1
  10
212.02777
  20
62.293549
  0
VERTEX
  5
173
  8
Layer_1
  10
212.02777
  20
62.291443
  42
0.41421356
  0
VERTEX
  5
174
  8
Layer_1
  10
212.02988
  20
62.291443
  0
VERTEX
  5
175
  8
Layer_1
  10
212.24278
  20
62.020142
  0
VERTEX
  5
176
  8
Layer_1
  10
221.8696
  20
62.020142
  0
VERTEX
  5
177
  8
Layer_1
  10
221.8696
  20
61.977249
  0
VERTEX
  5
178
  8
Layer_1
  10
221.95743
  20
61.971069
  42
-0.38150826
  0
VERTEX
  5
179
  8
Layer_1
  10
229.36009
  20
54.488831
  42
-0.3994556
  0
VERTEX
  5
17a
  8
Layer_1
  10
222.27214
  20
46.21698
  0
VERTEX
  5
17b
  8
Layer_1
  10
221.8696
  20
46.185974
  0
VERTEX
  5
17c
  8
Layer_1
  10
221.8696
  20
46.145157
  0
VERTEX
  5
17d
  8
Layer_1
  10
212.24278
  20
46.145157
  0
VERTEX
  5
17e
  8
Layer_1
  10
212.21332
  20
46.107941
  42
-0.20399421
  0
VERTEX
  5
17f
  8
Layer_1
  10
203.38907
  20
41.242599
  0
VERTEX
  5
180
  8
Layer_1
  10
202.97617
  20
41.212112
  42
-0.0084279589
  0
VERTEX
  5
181
  8
Layer_1
  10
203.02527
  20
41.025558
  0
VERTEX
  5
182
  8
Layer_1
  10
203.1591
  20
41.035919
  42
-0.058686352
  0
VERTEX
  5
183
  8
Layer_1
  10
203.20769
  20
41.112396
  0
VERTEX
  5
184
  8
Layer_1
  10
203.22351
  20
41.102737
  0
VERTEX
  5
185
  8
Layer_1
  10
203.21593
  20
41.040573
  0
VERTEX
  5
186
  8
Layer_1
  10
203.40869
  20
41.055038
  42
0.050470844
  0
VERTEX
  5
187
  8
Layer_1
  10
205.97751
  20
41.581619
  42
0.049911187
  0
VERTEX
  5
188
  8
Layer_1
  10
208.366
  20
42.59964
  42
0.049835255
  0
VERTEX
  5
189
  8
Layer_1
  10
210.50592
  20
44.070358
  42
0.050250865
  0
VERTEX
  5
18a
  8
Layer_1
  10
212.32855
  20
45.955521
  0
VERTEX
  5
18b
  8
Layer_1
  10
222.05923
  20
45.955521
  0
VERTEX
  5
18c
  8
Layer_1
  10
222.05923
  20
46.01236
  0
VERTEX
  5
18d
  8
Layer_1
  10
222.2897
  20
46.029922
  0
VERTEX
  5
18e
  8
Layer_1
  10
222.29129
  20
46.029922
  42
0.39945529
  0
VERTEX
  5
18f
  8
Layer_1
  10
229.54718
  20
54.498657
  42
0.37815791
  0
VERTEX
  5
190
  8
Layer_1
  10
222.05927
  20
62.135406
  0
VERTEX
  5
191
  8
Layer_1
  10
222.05927
  20
62.209305
  0
VERTEX
  5
192
  8
Layer_1
  10
212.33427
  20
62.209305
  0
VERTEX
  5
193
  8
Layer_1
  10
212.17615
  20
62.410843
  0
VERTEX
  5
194
  8
Layer_1
  10
212.17404
  20
62.410843
  42
0.19868743
  0
VERTEX
  5
195
  8
Layer_1
  10
203.33737
  20
67.112366
  0
VERTEX
  5
196
  8
Layer_1
  10
203.33734
  20
67.112366
  0
SEQEND
  0
POLYLINE
  5
198
  8
Layer_1
  62
5
  66
1
  10
0
  20
0
  30
0
  0
VERTEX
  5
198
  8
Layer_1
  10
201.07803
  20
41.216797
  42
-0.002782032
  0
VERTEX
  5
199
  8
Layer_1
  10
201.08527
  20
41.208023
  42
0.018049621
  0
VERTEX
  5
19a
  8
Layer_1
  10
201.08475
  20
41.216263
  42
-0.0089822849
  0
VERTEX
  5
19b
  8
Layer_1
  10
201.078
  20
41.216797
  0
VERTEX
  5
19c
  8
Layer_1
  10
201.07803
  20
41.216797
  0
SEQEND
  0
POLYLINE
  5
19e
  8
Layer_1
  62
5
  66
1
  10
0
  20
0
  30
0
  0
VERTEX
  5
19e
  8
Layer_1
  10
202.74048
  20
41.19458
  42
0.012818401
  0
VERTEX
  5
19f
  8
Layer_1
  10
202.75339
  20
41.049881
  42
-0.015748221
  0
VERTEX
  5
1a0
  8
Layer_1
  10
202.75549
  20
41.063828
  42
0.0024538427
  0
VERTEX
  5
1a1
  8
Layer_1
  10
202.74307
  20
41.194565
  0
VERTEX
  5
1a2
  8
Layer_1
  10
202.74048
  20
41.19458
  0
SEQEND
  0
POLYLINE
  5
1a4
  8
Layer_1
  62
5
  66
1
  10
0
  20
0
  30
0
  0
VERTEX
  5
1a4
  8
Layer_1
  10
202.75546
  20
41.063843
  42
0.00083539876
  0
VERTEX
  5
1a5
  8
Layer_1
  10
202.75705
  20
41.048874
  0
VERTEX
  5
1a6
  8
Layer_1
  10
202.76427
  20
41.127411
  42
0.005620347
  0
VERTEX
  5
1a7
  8
Layer_1
  10
202.75549
  20
41.063858
  0
VERTEX
  5
1a8
  8
Layer_1
  10
202.75546
  20
41.063843
  0
SEQEND
  0
POLYLINE
  5
1aa
  8
Layer_1
  62
5
  66
1
  10
0
  20
0
  30
0
  0
VERTEX
  5
1aa
  8
Layer_1
  10
202.75705
  20
41.048874
  0
VERTEX
  5
1ab
  8
Layer_1
  10
202.75546
  20
41.034393
  42
-0.0045025
  0
VERTEX
  5
1ac
  8
Layer_1
  10
202.75958
  20
41.005463
  0
VERTEX
  5
1ad
  8
Layer_1
  10
202.76117
  20
41.005463
  42
-0.0013535067
  0
VERTEX
  5
1ae
  8
Layer_1
  10
202.75705
  20
41.048874
  0
SEQEND
  0
POLYLINE
  5
1b0
  8
Layer_1
  62
5
  66
1
  10
0
  20
0
  30
0
  0
VERTEX
  5
1b0
  8
Layer_1
  10
202.75546
  20
41.034393
  42
-0.00096017579
  0
VERTEX
  5
1b1
  8
Layer_1
  10
202.75333
  20
41.049896
  42
-0.001995993
  0
VERTEX
  5
1b2
  8
Layer_1
  10
202.74971
  20
41.004944
  0
VERTEX
  5
1b3
  8
Layer_1
  10
202.75281
  20
41.004944
  0
VERTEX
  5
1b4
  8
Layer_1
  10
202.75546
  20
41.034393
  0
SEQEND
  0
POLYLINE
  5
1b6
  8
Layer_1
  62
5
  66
1
  10
0
  20
0
  30
0
  0
VERTEX
  5
1b6
  8
Layer_1
  10
201.54105
  20
41.192535
  42
0.00080410133
  0
VERTEX
  5
1b7
  8
Layer_1
  10
201.58859
  20
41.15274
  42
-0.008260215
  0
VERTEX
  5
1b8
  8
Layer_1
  10
201.58859
  20
41.15538
  42
-0.0082628516
  0
VERTEX
  5
1b9
  8
Layer_1
  10
201.57413
  20
41.19104
  42
0.00034499587
  0
VERTEX
  5
1ba
  8
Layer_1
  10
201.54105
  20
41.192627
  0
VERTEX
  5
1bb
  8
Layer_1
  10
201.54105
  20
41.192535
  0
SEQEND
  0
POLYLINE
  5
1bd
  8
Layer_1
  62
5
  66
1
  10
0
  20
0
  30
0
  0
VERTEX
  5
1bd
  8
Layer_1
  10
202.53323
  20
41.188919
  42
0.001979704
  0
VERTEX
  5
1be
  8
Layer_1
  10
202.5043
  20
41.188385
  42
-0.033563655
  0
VERTEX
  5
1bf
  8
Layer_1
  10
202.49188
  20
41.128433
  42
0.017908415
  0
VERTEX
  5
1c0
  8
Layer_1
  10
202.53323
  20
41.188889
  0
VERTEX
  5
1c1
  8
Layer_1
  10
202.53323
  20
41.188919
  0
SEQEND
  0
POLYLINE
  5
1c3
  8
Layer_1
  62
5
  66
1
  10
0
  20
0
  30
0
  0
VERTEX
  5
1c3
  8
Layer_1
  10
201.71313
  20
41.185806
  42
0.00045071081
  0
VERTEX
  5
1c4
  8
Layer_1
  10
201.76999
  20
41.128448
  42
-0.0013047986
  0
VERTEX
  5
1c5
  8
Layer_1
  10
201.77104
  20
41.183746
  42
0.0001865019
  0
VERTEX
  5
1c6
  8
Layer_1
  10
201.71317
  20
41.185852
  0
VERTEX
  5
1c7
  8
Layer_1
  10
201.71313
  20
41.185806
  0
SEQEND
  0
POLYLINE
  5
1c9
  8
Layer_1
  62
5
  66
1
  10
0
  20
0
  30
0
  0
VERTEX
  5
1c9
  8
Layer_1
  10
201.76999
  20
41.128448
  42
-0.0015050847
  0
VERTEX
  5
1ca
  8
Layer_1
  10
201.76733
  20
41.003906
  42
0.0032240627
  0
VERTEX
  5
1cb
  8
Layer_1
  10
201.77975
  20
40.993561
  42
-0.00032535187
  0
VERTEX
  5
1cc
  8
Layer_1
  10
201.81488
  20
40.992493
  42
-0.00055878204
  0
VERTEX
  5
1cd
  8
Layer_1
  10
201.83038
  20
41.067947
  42
-4.735742e-05
  0
VERTEX
  5
1ce
  8
Layer_1
  10
201.76993
  20
41.128403
  0
VERTEX
  5
1cf
  8
Layer_1
  10
201.76999
  20
41.128448
  0
SEQEND
  0
POLYLINE
  5
1d1
  8
Layer_1
  62
5
  66
1
  10
0
  20
0
  30
0
  0
VERTEX
  5
1d1
  8
Layer_1
  10
201.83044
  20
41.067993
  42
0.00050692996
  0
VERTEX
  5
1d2
  8
Layer_1
  10
201.9095
  20
40.988922
  42
-0.0023208201
  0
VERTEX
  5
1d3
  8
Layer_1
  10
201.94879
  20
40.987335
  42
0.0046647921
  0
VERTEX
  5
1d4
  8
Layer_1
  10
201.9064
  20
41.179062
  42
-0.00092821315
  0
VERTEX
  5
1d5
  8
Layer_1
  10
201.85732
  20
41.180649
  42
0.0075044834
  0
VERTEX
  5
1d6
  8
Layer_1
  10
201.83044
  20
41.067993
  0
SEQEND
  0
CIRCLE
  5
1d8
  8
Layer_1
  62
5
  10
196.79507
  20
111.86133
  30
0
  40
2.4999993
  0
CIRCLE
  5
1d8
  8
Layer_1
  62
5
  10
208.28894
  20
111.88513
  30
0
  40
2.4999993
  0
CIRCLE
  5
1d8
  8
Layer_1
  62
5
  10
202.14636
  20
114.28943
  30
0
  40
0.29883492
  0
CIRCLE
  5
1d8
  8
Layer_1
  62
5
  10
202.14636
  20
109.66907
  30
0
  40
0.29883492
  0
CIRCLE
  5
1d8
  8
Layer_1
  62
5
  10
202.14636
  20
107.24463
  30
0
  40
0.29883492
  0
CIRCLE
  5
1d8
  8
Layer_1
  62
5
  10
204.27094
  20
107.24963
  30
0
  40
0.29883492
  0
CIRCLE
  5
1d8
  8
Layer_1
  62
5
  10
206.28128
  20
107.24463
  30
0
  40
0.29883492
  0
CIRCLE
  5
1d8
  8
Layer_1
  62
5
  10
187.45068
  20
114.27332
  30
0
  40
0.29883492
  0
CIRCLE
  5
1d8
  8
Layer_1
  62
5
  10
187.25439
  20
110.51489
  30
0
  40
0.29883492
  0
CIRCLE
  5
1d8
  8
Layer_1
  62
5
  10
187.45068
  20
107.22852
  30
0
  40
0.29883492
  0
CIRCLE
  5
1d8
  8
Layer_1
  62
5
  10
190.03308
  20
114.19809
  30
0
  40
0.29883492
  0
CIRCLE
  5
1d8
  8
Layer_1
  62
5
  10
192.08496
  20
113.32556
  30
0
  40
0.29883492
  0
CIRCLE
  5
1d8
  8
Layer_1
  62
5
  10
189.90564
  20
110.42139
  30
0
  40
0.29883492
  0
CIRCLE
  5
1d8
  8
Layer_1
  62
5
  10
215.72592
  20
109.26068
  30
0
  40
0.29883492
  0
CIRCLE
  5
1d8
  8
Layer_1
  62
5
  10
220.62976
  20
109.86902
  30
0
  40
0.29883492
  0
CIRCLE
  5
1d8
  8
Layer_1
  62
5
  10
220.00696
  20
108.06836
  30
0
  40
0.29883492
  0
CIRCLE
  5
1d8
  8
Layer_1
  62
5
  10
217.65311
  20
107.73193
  30
0
  40
0.29883492
  0
CIRCLE
  5
1d8
  8
Layer_1
  62
5
  10
188.90909
  20
128.97083
  30
0
  40
0.24999993
  0
CIRCLE
  5
1d8
  8
Layer_1
  62
5
  10
186.1604
  20
127.25787
  30
0
  40
0.24999993
  0
CIRCLE
  5
1d8
  8
Layer_1
  62
5
  10
184.0889
  20
125.46518
  30
0
  40
0.24999993
  0
CIRCLE
  5
1d8
  8
Layer_1
  62
5
  10
181.14099
  20
122.91577
  30
0
  40
0.24999993
  0
CIRCLE
  5
1d8
  8
Layer_1
  62
5
  10
179.27133
  20
120.10278
  30
0
  40
0.24999993
  0
CIRCLE
  5
1d8
  8
Layer_1
  62
5
  10
177.45218
  20
117.30664
  30
0
  40
0.24999993
  0
CIRCLE
  5
1d8
  8
Layer_1
  62
5
  10
176.20065
  20
113.79614
  30
0
  40
0.24999993
  0
CIRCLE
  5
1d8
  8
Layer_1
  62
5
  10
192.02524
  20
130.48621
  30
0
  40
0.24999993
  0
CIRCLE
  5
1d8
  8
Layer_1
  62
5
  10
195.36325
  20
131.47519
  30
0
  40
0.24999993
  0
CIRCLE
  5
1d8
  8
Layer_1
  62
5
  10
198.70126
  20
132.21704
  30
0
  40
0.24999993
  0
CIRCLE
  5
1d8
  8
Layer_1
  62
5
  10
202.28653
  20
132.58789
  30
0
  40
0.24999993
  0
CIRCLE
  5
1d8
  8
Layer_1
  62
5
  10
205.37726
  20
132.46423
  30
0
  40
0.24999993
  0
CIRCLE
  5
1d8
  8
Layer_1
  62
5
  10
208.71527
  20
131.72247
  30
0
  40
0.24999993
  0
CIRCLE
  5
1d8
  8
Layer_1
  62
5
  10
211.92963
  20
130.7334
  30
0
  40
0.24999993
  0
CIRCLE
  5
1d8
  8
Layer_1
  62
5
  10
214.77313
  20
129.37354
  30
0
  40
0.24999993
  0
CIRCLE
  5
1d8
  8
Layer_1
  62
5
  10
217.74023
  20
128.2608
  30
0
  40
0.24999993
  0
CIRCLE
  5
1d8
  8
Layer_1
  62
5
  10
175.45886
  20
110.33453
  30
0
  40
0.24999993
  0
CIRCLE
  5
1d8
  8
Layer_1
  62
5
  10
220.46008
  20
126.15915
  30
0
  40
0.24999993
  0
CIRCLE
  5
1d8
  8
Layer_1
  62
5
  10
174.74863
  20
107.43054
  30
0
  40
0.24999993
  0
CIRCLE
  5
1d8
  8
Layer_1
  62
5
  10
222.63977
  20
123.74664
  30
0
  40
0.24999993
  0
CIRCLE
  5
1d8
  8
Layer_1
  62
5
  10
225.03537
  20
120.83777
  30
0
  40
0.24999993
  0
CIRCLE
  5
1d8
  8
Layer_1
  62
5
  10
227.08871
  20
117.75769
  30
0
  40
0.24999993
  0
CIRCLE
  5
1d8
  8
Layer_1
  62
5
  10
228.79987
  20
114.16428
  30
0
  40
0.24999993
  0
CIRCLE
  5
1d8
  8
Layer_1
  62
5
  10
229.65543
  20
109.88644
  30
0
  40
0.24999993
  0
CIRCLE
  5
1d8
  8
Layer_1
  62
5
  10
189.35327
  20
79.625244
  30
0
  40
0.24999993
  0
CIRCLE
  5
1d8
  8
Layer_1
  62
5
  10
186.60458
  20
81.338196
  30
0
  40
0.24999993
  0
CIRCLE
  5
1d8
  8
Layer_1
  62
5
  10
184.53308
  20
83.130859
  30
0
  40
0.24999993
  0
CIRCLE
  5
1d8
  8
Layer_1
  62
5
  10
181.58517
  20
85.680359
  30
0
  40
0.24999993
  0
CIRCLE
  5
1d8
  8
Layer_1
  62
5
  10
179.71552
  20
88.493286
  30
0
  40
0.24999993
  0
CIRCLE
  5
1d8
  8
Layer_1
  62
5
  10
177.89636
  20
91.289368
  30
0
  40
0.24999993
  0
CIRCLE
  5
1d8
  8
Layer_1
  62
5
  10
192.46942
  20
78.109863
  30
0
  40
0.24999993
  0
CIRCLE
  5
1d8
  8
Layer_1
  62
5
  10
195.80743
  20
77.12085
  30
0
  40
0.24999993
  0
CIRCLE
  5
1d8
  8
Layer_1
  62
5
  10
199.14545
  20
76.379089
  30
0
  40
0.24999993
  0
CIRCLE
  5
1d8
  8
Layer_1
  62
5
  10
202.73071
  20
76.008179
  30
0
  40
0.24999993
  0
CIRCLE
  5
1d8
  8
Layer_1
  62
5
  10
205.82144
  20
76.131836
  30
0
  40
0.24999993
  0
CIRCLE
  5
1d8
  8
Layer_1
  62
5
  10
209.15945
  20
76.873596
  30
0
  40
0.24999993
  0
CIRCLE
  5
1d8
  8
Layer_1
  62
5
  10
212.37381
  20
77.86261
  30
0
  40
0.24999993
  0
CIRCLE
  5
1d8
  8
Layer_1
  62
5
  10
215.21732
  20
79.222534
  30
0
  40
0.24999993
  0
CIRCLE
  5
1d8
  8
Layer_1
  62
5
  10
218.18442
  20
80.335205
  30
0
  40
0.24999993
  0
CIRCLE
  5
1d8
  8
Layer_1
  62
5
  10
220.90427
  20
82.436951
  30
0
  40
0.24999993
  0
CIRCLE
  5
1d8
  8
Layer_1
  62
5
  10
223.08395
  20
84.849426
  30
0
  40
0.24999993
  0
CIRCLE
  5
1d8
  8
Layer_1
  62
5
  10
225.47955
  20
87.758362
  30
0
  40
0.24999993
  0
CIRCLE
  5
1d8
  8
Layer_1
  62
5
  10
227.5329
  20
90.838379
  30
0
  40
0.24999993
  0
CIRCLE
  5
1d8
  8
Layer_1
  62
5
  10
176.64484
  20
94.799927
  30
0
  40
0.24999993
  0
CIRCLE
  5
1d8
  8
Layer_1
  62
5
  10
175.90305
  20
98.261536
  30
0
  40
0.24999993
  0
CIRCLE
  5
1d8
  8
Layer_1
  62
5
  10
175.19281
  20
101.16553
  30
0
  40
0.24999993
  0
CIRCLE
  5
1d8
  8
Layer_1
  62
5
  10
229.24405
  20
94.431763
  30
0
  40
0.24999993
  0
CIRCLE
  5
1d8
  8
Layer_1
  62
5
  10
230.09961
  20
98.709595
  30
0
  40
0.24999993
  0
CIRCLE
  5
1d8
  8
Layer_1
  62
5
  10
174.5827
  20
104.54419
  30
0
  40
0.24999993
  0
CIRCLE
  5
1d8
  8
Layer_1
  62
5
  10
230.1684
  20
106.01526
  30
0
  40
0.24999993
  0
CIRCLE
  5
1d8
  8
Layer_1
  62
5
  10
230.37854
  20
102.75793
  30
0
  40
0.24999993
  0
CIRCLE
  5
1d8
  8
Layer_1
  62
5
  10
202.14636
  20
112.10788
  30
0
  40
0.29883492
  0
CIRCLE
  5
1d8
  8
Layer_1
  62
5
  10
192.06903
  20
111.2258
  30
0
  40
0.29883492
  0
CIRCLE
  5
1d8
  8
Layer_1
  62
5
  10
220.51669
  20
113.41809
  30
0
  40
0.29883492
  0
CIRCLE
  5
1d8
  8
Layer_1
  62
5
  10
218.09241
  20
111.25696
  30
0
  40
0.29883492
  0
CIRCLE
  5
1d8
  8
Layer_1
  62
5
  10
216.02435
  20
111.82166
  30
0
  40
0.29883492
  0
CIRCLE
  5
1d8
  8
Layer_1
  62
5
  10
216.23566
  20
113.90915
  30
0
  40
0.29883492
  0
CIRCLE
  5
1d8
  8
Layer_1
  62
5
  10
218.58951
  20
114.94675
  30
0
  40
0.29883492
  0
POLYLINE
  5
1d8
  8
Layer_1
  62
5
  66
1
  10
0
  20
0
  30
0
  0
VERTEX
  5
1d8
  8
Layer_1
  10
186.46536
  20
98.051575
  42
-0.21043364
  0
VERTEX
  5
1d9
  8
Layer_1
  10
186.26797
  20
97.984314
  42
-0.21026141
  0
VERTEX
  5
1da
  8
Layer_1
  10
186.08508
  20
98.084503
  42
-0.38862089
  0
VERTEX
  5
1db
  8
Layer_1
  10
186.1152
  20
98.500275
  42
-0.21046219
  0
VERTEX
  5
1dc
  8
Layer_1
  10
186.31256
  20
98.567505
  42
-0.21037076
  0
VERTEX
  5
1dd
  8
Layer_1
  10
186.49545
  20
98.467346
  42
-0.38862089
  0
VERTEX
  5
1de
  8
Layer_1
  10
186.46536
  20
98.051575
  0
SEQEND
  0
POLYLINE
  5
1e0
  8
Layer_1
  62
5
  66
1
  10
0
  20
0
  30
0
  0
VERTEX
  5
1e0
  8
Layer_1
  10
184.32825
  20
96.041748
  42
-0.21035283
  0
VERTEX
  5
1e1
  8
Layer_1
  10
184.13086
  20
95.974518
  42
-0.21041429
  0
VERTEX
  5
1e2
  8
Layer_1
  10
183.948
  20
96.074677
  42
-0.38866128
  0
VERTEX
  5
1e3
  8
Layer_1
  10
183.97809
  20
96.490479
  42
-0.21027198
  0
VERTEX
  5
1e4
  8
Layer_1
  10
184.17548
  20
96.557709
  42
-0.21048114
  0
VERTEX
  5
1e5
  8
Layer_1
  10
184.35837
  20
96.45752
  42
-0.38869535
  0
VERTEX
  5
1e6
  8
Layer_1
  10
184.32825
  20
96.041748
  0
SEQEND
  0
POLYLINE
  5
1e8
  8
Layer_1
  62
5
  66
1
  10
0
  20
0
  30
0
  0
VERTEX
  5
1e8
  8
Layer_1
  10
182.05273
  20
93.860352
  42
-0.21035283
  0
VERTEX
  5
1e9
  8
Layer_1
  10
181.85535
  20
93.793121
  42
-0.21037076
  0
VERTEX
  5
1ea
  8
Layer_1
  10
181.67245
  20
93.89328
  42
-0.38862089
  0
VERTEX
  5
1eb
  8
Layer_1
  10
181.70258
  20
94.309082
  42
-0.21035283
  0
VERTEX
  5
1ec
  8
Layer_1
  10
181.89993
  20
94.376312
  42
-0.21037076
  0
VERTEX
  5
1ed
  8
Layer_1
  10
182.08282
  20
94.276123
  42
-0.38862089
  0
VERTEX
  5
1ee
  8
Layer_1
  10
182.05273
  20
93.860352
  0
SEQEND
  0
POLYLINE
  5
1f0
  8
Layer_1
  62
5
  66
1
  10
0
  20
0
  30
0
  0
VERTEX
  5
1f0
  8
Layer_1
  10
187.89487
  20
96.463989
  42
-0.21035283
  0
VERTEX
  5
1f1
  8
Layer_1
  10
187.69748
  20
96.396759
  42
-0.21041429
  0
VERTEX
  5
1f2
  8
Layer_1
  10
187.51462
  20
96.496918
  42
-0.38866128
  0
VERTEX
  5
1f3
  8
Layer_1
  10
187.54471
  20
96.91272
  42
-0.21027198
  0
VERTEX
  5
1f4
  8
Layer_1
  10
187.7421
  20
96.97995
  42
-0.21048114
  0
VERTEX
  5
1f5
  8
Layer_1
  10
187.92499
  20
96.879761
  42
-0.38869535
  0
VERTEX
  5
1f6
  8
Layer_1
  10
187.89487
  20
96.463989
  0
SEQEND
  0
POLYLINE
  5
1f8
  8
Layer_1
  62
5
  66
1
  10
0
  20
0
  30
0
  0
VERTEX
  5
1f8
  8
Layer_1
  10
188.9451
  20
94.861877
  42
-0.21035283
  0
VERTEX
  5
1f9
  8
Layer_1
  10
188.74771
  20
94.794647
  42
-0.21037076
  0
VERTEX
  5
1fa
  8
Layer_1
  10
188.56482
  20
94.894806
  42
-0.38862089
  0
VERTEX
  5
1fb
  8
Layer_1
  10
188.59494
  20
95.310608
  42
-0.21035283
  0
VERTEX
  5
1fc
  8
Layer_1
  10
188.7923
  20
95.377838
  42
-0.21037076
  0
VERTEX
  5
1fd
  8
Layer_1
  10
188.97519
  20
95.277649
  42
-0.38862089
  0
VERTEX
  5
1fe
  8
Layer_1
  10
188.9451
  20
94.861877
  0
SEQEND
  0
POLYLINE
  5
200
  8
Layer_1
  62
5
  66
1
  10
0
  20
0
  30
0
  0
VERTEX
  5
200
  8
Layer_1
  10
187.69348
  20
93.196106
  42
-0.21035283
  0
VERTEX
  5
201
  8
Layer_1
  10
187.49609
  20
93.128876
  42
-0.21037076
  0
VERTEX
  5
202
  8
Layer_1
  10
187.3132
  20
93.229034
  42
-0.38862089
  0
VERTEX
  5
203
  8
Layer_1
  10
187.34332
  20
93.644836
  42
-0.21035283
  0
VERTEX
  5
204
  8
Layer_1
  10
187.54068
  20
93.712067
  42
-0.21037076
  0
VERTEX
  5
205
  8
Layer_1
  10
187.72357
  20
93.611877
  42
-0.38862089
  0
VERTEX
  5
206
  8
Layer_1
  10
187.69348
  20
93.196106
  0
SEQEND
  0
POLYLINE
  5
208
  8
Layer_1
  62
5
  66
1
  10
0
  20
0
  30
0
  0
VERTEX
  5
208
  8
Layer_1
  10
185.5173
  20
94.569824
  42
-0.21035283
  0
VERTEX
  5
209
  8
Layer_1
  10
185.31992
  20
94.502594
  42
-0.21037076
  0
VERTEX
  5
20a
  8
Layer_1
  10
185.13702
  20
94.602753
  42
-0.38862089
  0
VERTEX
  5
20b
  8
Layer_1
  10
185.16714
  20
95.018555
  42
-0.21035283
  0
VERTEX
  5
20c
  8
Layer_1
  10
185.3645
  20
95.085785
  42
-0.21037076
  0
VERTEX
  5
20d
  8
Layer_1
  10
185.54739
  20
94.985596
  42
-0.38862089
  0
VERTEX
  5
20e
  8
Layer_1
  10
185.5173
  20
94.569824
  0
SEQEND
  0
POLYLINE
  5
210
  8
Layer_1
  62
5
  66
1
  10
0
  20
0
  30
0
  0
VERTEX
  5
210
  8
Layer_1
  10
185.76324
  20
91.97937
  42
-0.21035283
  0
VERTEX
  5
211
  8
Layer_1
  10
185.56586
  20
91.91214
  42
-0.21037076
  0
VERTEX
  5
212
  8
Layer_1
  10
185.38297
  20
92.012299
  42
-0.38862089
  0
VERTEX
  5
213
  8
Layer_1
  10
185.41309
  20
92.428101
  42
-0.21035283
  0
VERTEX
  5
214
  8
Layer_1
  10
185.61044
  20
92.495331
  42
-0.21037076
  0
VERTEX
  5
215
  8
Layer_1
  10
185.79333
  20
92.395142
  42
-0.38862089
  0
VERTEX
  5
216
  8
Layer_1
  10
185.76324
  20
91.97937
  0
SEQEND
  0
POLYLINE
  5
218
  8
Layer_1
  62
5
  66
1
  10
0
  20
0
  30
0
  0
VERTEX
  5
218
  8
Layer_1
  10
185.20935
  20
90.091919
  42
-0.21035283
  0
VERTEX
  5
219
  8
Layer_1
  10
185.01196
  20
90.024689
  42
-0.21037076
  0
VERTEX
  5
21a
  8
Layer_1
  10
184.82907
  20
90.124847
  42
-0.38862089
  0
VERTEX
  5
21b
  8
Layer_1
  10
184.85919
  20
90.540649
  42
-0.21035283
  0
VERTEX
  5
21c
  8
Layer_1
  10
185.05655
  20
90.60788
  42
-0.21037076
  0
VERTEX
  5
21d
  8
Layer_1
  10
185.23944
  20
90.50769
  42
-0.38862089
  0
VERTEX
  5
21e
  8
Layer_1
  10
185.20935
  20
90.091919
  0
SEQEND
  0
POLYLINE
  5
220
  8
Layer_1
  62
5
  66
1
  10
0
  20
0
  30
0
  0
VERTEX
  5
220
  8
Layer_1
  10
203.37192
  20
89.210541
  42
-0.41145996
  0
VERTEX
  5
221
  8
Layer_1
  10
203.11649
  20
88.900757
  0
VERTEX
  5
222
  8
Layer_1
  10
203.01056
  20
88.917969
  0
VERTEX
  5
223
  8
Layer_1
  10
202.92194
  20
88.976257
  0
VERTEX
  5
224
  8
Layer_1
  10
202.8598
  20
89.06662
  0
VERTEX
  5
225
  8
Layer_1
  10
202.83319
  20
89.180084
  42
-0.41150248
  0
VERTEX
  5
226
  8
Layer_1
  10
203.08862
  20
89.489838
  0
VERTEX
  5
227
  8
Layer_1
  10
203.19458
  20
89.472626
  0
VERTEX
  5
228
  8
Layer_1
  10
203.2832
  20
89.414337
  0
VERTEX
  5
229
  8
Layer_1
  10
203.34534
  20
89.323975
  0
VERTEX
  5
22a
  8
Layer_1
  10
203.37192
  20
89.210541
  0
SEQEND
  0
POLYLINE
  5
22c
  8
Layer_1
  62
5
  66
1
  10
0
  20
0
  30
0
  0
VERTEX
  5
22c
  8
Layer_1
  10
203.41571
  20
87.304596
  42
-0.41148834
  0
VERTEX
  5
22d
  8
Layer_1
  10
203.16028
  20
86.994812
  0
VERTEX
  5
22e
  8
Layer_1
  10
203.05435
  20
87.012024
  0
VERTEX
  5
22f
  8
Layer_1
  10
202.96573
  20
87.070313
  0
VERTEX
  5
230
  8
Layer_1
  10
202.90356
  20
87.160675
  0
VERTEX
  5
231
  8
Layer_1
  10
202.87698
  20
87.274139
  42
-0.41150248
  0
VERTEX
  5
232
  8
Layer_1
  10
203.13242
  20
87.583893
  0
VERTEX
  5
233
  8
Layer_1
  10
203.23837
  20
87.566681
  0
VERTEX
  5
234
  8
Layer_1
  10
203.32697
  20
87.508392
  0
VERTEX
  5
235
  8
Layer_1
  10
203.38913
  20
87.41803
  0
VERTEX
  5
236
  8
Layer_1
  10
203.41571
  20
87.304596
  0
SEQEND
  0
POLYLINE
  5
238
  8
Layer_1
  62
5
  66
1
  10
0
  20
0
  30
0
  0
VERTEX
  5
238
  8
Layer_1
  10
203.51086
  20
84.757172
  42
-0.41145852
  0
VERTEX
  5
239
  8
Layer_1
  10
203.25545
  20
84.447388
  0
VERTEX
  5
23a
  8
Layer_1
  10
203.14948
  20
84.4646
  0
VERTEX
  5
23b
  8
Layer_1
  10
203.06088
  20
84.522888
  0
VERTEX
  5
23c
  8
Layer_1
  10
202.99872
  20
84.613251
  0
VERTEX
  5
23d
  8
Layer_1
  10
202.97214
  20
84.726715
  42
-0.41151668
  0
VERTEX
  5
23e
  8
Layer_1
  10
203.22757
  20
85.036469
  0
VERTEX
  5
23f
  8
Layer_1
  10
203.33353
  20
85.019257
  0
VERTEX
  5
240
  8
Layer_1
  10
203.42212
  20
84.960968
  0
VERTEX
  5
241
  8
Layer_1
  10
203.48428
  20
84.870605
  0
VERTEX
  5
242
  8
Layer_1
  10
203.51086
  20
84.757172
  0
SEQEND
  0
POLYLINE
  5
244
  8
Layer_1
  62
5
  66
1
  10
0
  20
0
  30
0
  0
VERTEX
  5
244
  8
Layer_1
  10
203.7002
  20
82.26712
  42
-0.41145996
  0
VERTEX
  5
245
  8
Layer_1
  10
203.44476
  20
81.957336
  0
VERTEX
  5
246
  8
Layer_1
  10
203.33881
  20
81.974548
  0
VERTEX
  5
247
  8
Layer_1
  10
203.25021
  20
82.032837
  0
VERTEX
  5
248
  8
Layer_1
  10
203.18805
  20
82.123199
  0
VERTEX
  5
249
  8
Layer_1
  10
203.16147
  20
82.236664
  42
-0.41151668
  0
VERTEX
  5
24a
  8
Layer_1
  10
203.4169
  20
82.546417
  0
VERTEX
  5
24b
  8
Layer_1
  10
203.52286
  20
82.529205
  0
VERTEX
  5
24c
  8
Layer_1
  10
203.61145
  20
82.470917
  0
VERTEX
  5
24d
  8
Layer_1
  10
203.67361
  20
82.380554
  0
VERTEX
  5
24e
  8
Layer_1
  10
203.7002
  20
82.26712
  0
SEQEND
  0
POLYLINE
  5
250
  8
Layer_1
  62
5
  66
1
  10
0
  20
0
  30
0
  0
VERTEX
  5
250
  8
Layer_1
  10
208.78278
  20
85.698608
  42
-0.3999719
  0
VERTEX
  5
251
  8
Layer_1
  10
208.60074
  20
85.332062
  42
-0.20530595
  0
VERTEX
  5
252
  8
Layer_1
  10
208.3905
  20
85.359772
  42
-0.20534429
  0
VERTEX
  5
253
  8
Layer_1
  10
208.26553
  20
85.531128
  42
-0.40005435
  0
VERTEX
  5
254
  8
Layer_1
  10
208.44757
  20
85.897644
  42
-0.20519208
  0
VERTEX
  5
255
  8
Layer_1
  10
208.65784
  20
85.869965
  42
-0.20521363
  0
VERTEX
  5
256
  8
Layer_1
  10
208.78278
  20
85.698608
  0
SEQEND
  0
POLYLINE
  5
258
  8
Layer_1
  62
5
  66
1
  10
0
  20
0
  30
0
  0
VERTEX
  5
258
  8
Layer_1
  10
209.39417
  20
83.209778
  42
-0.39997668
  0
VERTEX
  5
259
  8
Layer_1
  10
209.21213
  20
82.843231
  42
-0.20530595
  0
VERTEX
  5
25a
  8
Layer_1
  10
209.00189
  20
82.870941
  42
-0.205318
  0
VERTEX
  5
25b
  8
Layer_1
  10
208.87692
  20
83.042297
  42
-0.40004099
  0
VERTEX
  5
25c
  8
Layer_1
  10
209.05896
  20
83.408813
  42
-0.2052334
  0
VERTEX
  5
25d
  8
Layer_1
  10
209.26921
  20
83.381134
  42
-0.20524118
  0
VERTEX
  5
25e
  8
Layer_1
  10
209.39417
  20
83.209778
  0
SEQEND
  0
POLYLINE
  5
260
  8
Layer_1
  62
5
  66
1
  10
0
  20
0
  30
0
  0
VERTEX
  5
260
  8
Layer_1
  10
197.89728
  20
89.673309
  42
-0.20953441
  0
VERTEX
  5
261
  8
Layer_1
  10
197.72971
  20
89.548218
  42
-0.20953177
  0
VERTEX
  5
262
  8
Layer_1
  10
197.52414
  20
89.586639
  42
-0.3905622
  0
VERTEX
  5
263
  8
Layer_1
  10
197.44489
  20
89.994629
  42
-0.20948184
  0
VERTEX
  5
264
  8
Layer_1
  10
197.61246
  20
90.119751
  42
-0.20942518
  0
VERTEX
  5
265
  8
Layer_1
  10
197.81802
  20
90.081299
  42
-0.39057764
  0
VERTEX
  5
266
  8
Layer_1
  10
197.89728
  20
89.673309
  0
SEQEND
  0
POLYLINE
  5
268
  8
Layer_1
  62
5
  66
1
  10
0
  20
0
  30
0
  0
VERTEX
  5
268
  8
Layer_1
  10
196.67465
  20
87.615326
  42
-0.20953441
  0
VERTEX
  5
269
  8
Layer_1
  10
196.50708
  20
87.490234
  42
-0.20953177
  0
VERTEX
  5
26a
  8
Layer_1
  10
196.30151
  20
87.528656
  42
-0.3905622
  0
VERTEX
  5
26b
  8
Layer_1
  10
196.22226
  20
87.936646
  42
-0.20948184
  0
VERTEX
  5
26c
  8
Layer_1
  10
196.38983
  20
88.061768
  42
-0.20942518
  0
VERTEX
  5
26d
  8
Layer_1
  10
196.5954
  20
88.023315
  42
-0.39057764
  0
VERTEX
  5
26e
  8
Layer_1
  10
196.67465
  20
87.615326
  0
SEQEND
  0
POLYLINE
  5
270
  8
Layer_1
  62
5
  66
1
  10
0
  20
0
  30
0
  0
VERTEX
  5
270
  8
Layer_1
  10
195.54147
  20
85.812469
  42
-0.20953441
  0
VERTEX
  5
271
  8
Layer_1
  10
195.3739
  20
85.687378
  42
-0.20953177
  0
VERTEX
  5
272
  8
Layer_1
  10
195.16833
  20
85.7258
  42
-0.3905622
  0
VERTEX
  5
273
  8
Layer_1
  10
195.08908
  20
86.133789
  42
-0.20948184
  0
VERTEX
  5
274
  8
Layer_1
  10
195.25665
  20
86.258911
  42
-0.20942518
  0
VERTEX
  5
275
  8
Layer_1
  10
195.46222
  20
86.220459
  42
-0.39057764
  0
VERTEX
  5
276
  8
Layer_1
  10
195.54147
  20
85.812469
  0
SEQEND
  0
POLYLINE
  5
278
  8
Layer_1
  62
5
  66
1
  10
0
  20
0
  30
0
  0
VERTEX
  5
278
  8
Layer_1
  10
194.43344
  20
83.842743
  42
-0.20953441
  0
VERTEX
  5
279
  8
Layer_1
  10
194.26587
  20
83.717651
  42
-0.20953177
  0
VERTEX
  5
27a
  8
Layer_1
  10
194.0603
  20
83.756073
  42
-0.3905622
  0
VERTEX
  5
27b
  8
Layer_1
  10
193.98105
  20
84.164063
  42
-0.20948184
  0
VERTEX
  5
27c
  8
Layer_1
  10
194.14862
  20
84.289185
  42
-0.20942518
  0
VERTEX
  5
27d
  8
Layer_1
  10
194.35419
  20
84.250732
  42
-0.39057764
  0
VERTEX
  5
27e
  8
Layer_1
  10
194.43344
  20
83.842743
  0
SEQEND
  0
POLYLINE
  5
280
  8
Layer_1
  62
5
  66
1
  10
0
  20
0
  30
0
  0
VERTEX
  5
280
  8
Layer_1
  10
198.01553
  20
87.44809
  42
0.2025819
  0
VERTEX
  5
281
  8
Layer_1
  10
198.11853
  20
87.260651
  42
0.20245722
  0
VERTEX
  5
282
  8
Layer_1
  10
198.32471
  20
87.203796
  42
0.4060091
  0
VERTEX
  5
283
  8
Layer_1
  10
198.54813
  20
87.54187
  42
0.2025089
  0
VERTEX
  5
284
  8
Layer_1
  10
198.44513
  20
87.72934
  42
0.20247936
  0
VERTEX
  5
285
  8
Layer_1
  10
198.23892
  20
87.786163
  42
0.40606428
  0
VERTEX
  5
286
  8
Layer_1
  10
198.01553
  20
87.44809
  0
SEQEND
  0
POLYLINE
  5
288
  8
Layer_1
  62
5
  66
1
  10
0
  20
0
  30
0
  0
VERTEX
  5
288
  8
Layer_1
  10
198.32623
  20
85.144073
  42
0.2025819
  0
VERTEX
  5
289
  8
Layer_1
  10
198.42923
  20
84.956635
  42
0.20245722
  0
VERTEX
  5
28a
  8
Layer_1
  10
198.63541
  20
84.89978
  42
0.4060091
  0
VERTEX
  5
28b
  8
Layer_1
  10
198.85883
  20
85.237854
  42
0.2025089
  0
VERTEX
  5
28c
  8
Layer_1
  10
198.75583
  20
85.425323
  42
0.20247936
  0
VERTEX
  5
28d
  8
Layer_1
  10
198.54962
  20
85.482147
  42
0.40606428
  0
VERTEX
  5
28e
  8
Layer_1
  10
198.32623
  20
85.144073
  0
SEQEND
  0
POLYLINE
  5
290
  8
Layer_1
  62
5
  66
1
  10
0
  20
0
  30
0
  0
VERTEX
  5
290
  8
Layer_1
  10
198.63327
  20
83.254547
  42
0.2025819
  0
VERTEX
  5
291
  8
Layer_1
  10
198.73627
  20
83.067108
  42
0.20245722
  0
VERTEX
  5
292
  8
Layer_1
  10
198.94244
  20
83.010254
  42
0.4060091
  0
VERTEX
  5
293
  8
Layer_1
  10
199.16586
  20
83.348328
  42
0.2025089
  0
VERTEX
  5
294
  8
Layer_1
  10
199.06287
  20
83.535797
  42
0.20247936
  0
VERTEX
  5
295
  8
Layer_1
  10
198.85666
  20
83.592621
  42
0.40606428
  0
VERTEX
  5
296
  8
Layer_1
  10
198.63327
  20
83.254547
  0
SEQEND
  0
POLYLINE
  5
298
  8
Layer_1
  62
5
  66
1
  10
0
  20
0
  30
0
  0
VERTEX
  5
298
  8
Layer_1
  10
191.18802
  20
85.447601
  42
0.2025819
  0
VERTEX
  5
299
  8
Layer_1
  10
191.29102
  20
85.260162
  42
0.20245722
  0
VERTEX
  5
29a
  8
Layer_1
  10
191.49719
  20
85.203308
  42
0.4060091
  0
VERTEX
  5
29b
  8
Layer_1
  10
191.72061
  20
85.541382
  42
0.2025089
  0
VERTEX
  5
29c
  8
Layer_1
  10
191.61761
  20
85.728851
  42
0.20247936
  0
VERTEX
  5
29d
  8
Layer_1
  10
191.41141
  20
85.785675
  42
0.40606428
  0
VERTEX
  5
29e
  8
Layer_1
  10
191.18802
  20
85.447601
  0
SEQEND
  0
POLYLINE
  5
2a0
  8
Layer_1
  62
5
  66
1
  10
0
  20
0
  30
0
  0
VERTEX
  5
2a0
  8
Layer_1
  10
196.76984
  20
85.441864
  42
0.2025819
  0
VERTEX
  5
2a1
  8
Layer_1
  10
196.87283
  20
85.254425
  42
0.20245722
  0
VERTEX
  5
2a2
  8
Layer_1
  10
197.07901
  20
85.197571
  42
0.4060091
  0
VERTEX
  5
2a3
  8
Layer_1
  10
197.30243
  20
85.535645
  42
0.2025089
  0
VERTEX
  5
2a4
  8
Layer_1
  10
197.19943
  20
85.723114
  42
0.20247936
  0
VERTEX
  5
2a5
  8
Layer_1
  10
196.99323
  20
85.779938
  42
0.40606428
  0
VERTEX
  5
2a6
  8
Layer_1
  10
196.76984
  20
85.441864
  0
SEQEND
  0
POLYLINE
  5
2a8
  8
Layer_1
  62
5
  66
1
  10
0
  20
0
  30
0
  0
VERTEX
  5
2a8
  8
Layer_1
  10
192.3869
  20
88.494904
  42
0.2025819
  0
VERTEX
  5
2a9
  8
Layer_1
  10
192.4899
  20
88.307465
  42
0.20245722
  0
VERTEX
  5
2aa
  8
Layer_1
  10
192.69608
  20
88.25061
  42
0.4060091
  0
VERTEX
  5
2ab
  8
Layer_1
  10
192.91949
  20
88.588684
  42
0.2025089
  0
VERTEX
  5
2ac
  8
Layer_1
  10
192.8165
  20
88.776154
  42
0.20247936
  0
VERTEX
  5
2ad
  8
Layer_1
  10
192.61029
  20
88.832977
  42
0.40606428
  0
VERTEX
  5
2ae
  8
Layer_1
  10
192.3869
  20
88.494904
  0
SEQEND
  0
POLYLINE
  5
2b0
  8
Layer_1
  62
5
  66
1
  10
0
  20
0
  30
0
  0
VERTEX
  5
2b0
  8
Layer_1
  10
194.02515
  20
91.042145
  42
0.2025819
  0
VERTEX
  5
2b1
  8
Layer_1
  10
194.12814
  20
90.854706
  42
0.20245722
  0
VERTEX
  5
2b2
  8
Layer_1
  10
194.33432
  20
90.797852
  42
0.4060091
  0
VERTEX
  5
2b3
  8
Layer_1
  10
194.55774
  20
91.135925
  42
0.2025089
  0
VERTEX
  5
2b4
  8
Layer_1
  10
194.45474
  20
91.323395
  42
0.20247936
  0
VERTEX
  5
2b5
  8
Layer_1
  10
194.24854
  20
91.380219
  42
0.40606428
  0
VERTEX
  5
2b6
  8
Layer_1
  10
194.02515
  20
91.042145
  0
SEQEND
  0
POLYLINE
  5
2b8
  8
Layer_1
  62
5
  66
1
  10
0
  20
0
  30
0
  0
VERTEX
  5
2b8
  8
Layer_1
  10
189.29007
  20
86.61441
  42
0.2025819
  0
VERTEX
  5
2b9
  8
Layer_1
  10
189.39307
  20
86.426971
  42
0.20245722
  0
VERTEX
  5
2ba
  8
Layer_1
  10
189.59924
  20
86.370117
  42
0.4060091
  0
VERTEX
  5
2bb
  8
Layer_1
  10
189.82266
  20
86.708191
  42
0.2025089
  0
VERTEX
  5
2bc
  8
Layer_1
  10
189.71967
  20
86.89566
  42
0.20247936
  0
VERTEX
  5
2bd
  8
Layer_1
  10
189.51346
  20
86.952484
  42
0.40606428
  0
VERTEX
  5
2be
  8
Layer_1
  10
189.29007
  20
86.61441
  0
SEQEND
  0
POLYLINE
  5
2c0
  8
Layer_1
  62
5
  66
1
  10
0
  20
0
  30
0
  0
VERTEX
  5
2c0
  8
Layer_1
  10
190.93118
  20
89.385895
  42
0.2025819
  0
VERTEX
  5
2c1
  8
Layer_1
  10
191.03418
  20
89.198456
  42
0.20245722
  0
VERTEX
  5
2c2
  8
Layer_1
  10
191.24036
  20
89.141602
  42
0.4060091
  0
VERTEX
  5
2c3
  8
Layer_1
  10
191.46378
  20
89.479675
  42
0.2025089
  0
VERTEX
  5
2c4
  8
Layer_1
  10
191.36078
  20
89.667145
  42
0.20247936
  0
VERTEX
  5
2c5
  8
Layer_1
  10
191.15457
  20
89.723969
  42
0.40606428
  0
VERTEX
  5
2c6
  8
Layer_1
  10
190.93118
  20
89.385895
  0
SEQEND
  0
POLYLINE
  5
2c8
  8
Layer_1
  62
5
  66
1
  10
0
  20
0
  30
0
  0
VERTEX
  5
2c8
  8
Layer_1
  10
192.30902
  20
92.157135
  42
0.2025819
  0
VERTEX
  5
2c9
  8
Layer_1
  10
192.41202
  20
91.969696
  42
0.20245722
  0
VERTEX
  5
2ca
  8
Layer_1
  10
192.61819
  20
91.912842
  42
0.4060091
  0
VERTEX
  5
2cb
  8
Layer_1
  10
192.84161
  20
92.250916
  42
0.2025089
  0
VERTEX
  5
2cc
  8
Layer_1
  10
192.73862
  20
92.438385
  42
0.20247936
  0
VERTEX
  5
2cd
  8
Layer_1
  10
192.53241
  20
92.495209
  42
0.40606428
  0
VERTEX
  5
2ce
  8
Layer_1
  10
192.30902
  20
92.157135
  0
SEQEND
  0
POLYLINE
  5
2d0
  8
Layer_1
  62
5
  66
1
  10
0
  20
0
  30
0
  0
VERTEX
  5
2d0
  8
Layer_1
  10
190.55588
  20
93.201691
  42
0.2025819
  0
VERTEX
  5
2d1
  8
Layer_1
  10
190.65887
  20
93.014252
  42
0.20245722
  0
VERTEX
  5
2d2
  8
Layer_1
  10
190.86505
  20
92.957397
  42
0.4060091
  0
VERTEX
  5
2d3
  8
Layer_1
  10
191.08847
  20
93.295471
  42
0.2025089
  0
VERTEX
  5
2d4
  8
Layer_1
  10
190.98547
  20
93.482941
  42
0.20247936
  0
VERTEX
  5
2d5
  8
Layer_1
  10
190.77927
  20
93.539764
  42
0.40606428
  0
VERTEX
  5
2d6
  8
Layer_1
  10
190.55588
  20
93.201691
  0
SEQEND
  0
POLYLINE
  5
2d8
  8
Layer_1
  62
5
  66
1
  10
0
  20
0
  30
0
  0
VERTEX
  5
2d8
  8
Layer_1
  10
189.10944
  20
90.508698
  42
0.2025819
  0
VERTEX
  5
2d9
  8
Layer_1
  10
189.21243
  20
90.321259
  42
0.20245722
  0
VERTEX
  5
2da
  8
Layer_1
  10
189.41861
  20
90.264404
  42
0.4060091
  0
VERTEX
  5
2db
  8
Layer_1
  10
189.64203
  20
90.602478
  42
0.2025089
  0
VERTEX
  5
2dc
  8
Layer_1
  10
189.53903
  20
90.789948
  42
0.20247936
  0
VERTEX
  5
2dd
  8
Layer_1
  10
189.33282
  20
90.846771
  42
0.40606428
  0
VERTEX
  5
2de
  8
Layer_1
  10
189.10944
  20
90.508698
  0
SEQEND
  0
POLYLINE
  5
2e0
  8
Layer_1
  62
5
  66
1
  10
0
  20
0
  30
0
  0
VERTEX
  5
2e0
  8
Layer_1
  10
187.50665
  20
87.730194
  42
0.2025819
  0
VERTEX
  5
2e1
  8
Layer_1
  10
187.60965
  20
87.542755
  42
0.20245722
  0
VERTEX
  5
2e2
  8
Layer_1
  10
187.81583
  20
87.485901
  42
0.4060091
  0
VERTEX
  5
2e3
  8
Layer_1
  10
188.03925
  20
87.823975
  42
0.2025089
  0
VERTEX
  5
2e4
  8
Layer_1
  10
187.93625
  20
88.011444
  42
0.20247936
  0
VERTEX
  5
2e5
  8
Layer_1
  10
187.73004
  20
88.068268
  42
0.40606428
  0
VERTEX
  5
2e6
  8
Layer_1
  10
187.50665
  20
87.730194
  0
SEQEND
  0
POLYLINE
  5
2e8
  8
Layer_1
  62
5
  66
1
  10
0
  20
0
  30
0
  0
VERTEX
  5
2e8
  8
Layer_1
  10
220.46948
  20
101.14047
  42
-0.39595945
  0
VERTEX
  5
2e9
  8
Layer_1
  10
220.61685
  20
100.75574
  42
-0.20702891
  0
VERTEX
  5
2ea
  8
Layer_1
  10
220.4758
  20
100.59906
  42
-0.20697086
  0
VERTEX
  5
2eb
  8
Layer_1
  10
220.26501
  20
100.5946
  42
-0.39592769
  0
VERTEX
  5
2ec
  8
Layer_1
  10
220.11763
  20
100.97931
  42
-0.20704021
  0
VERTEX
  5
2ed
  8
Layer_1
  10
220.2587
  20
101.13602
  42
-0.20707244
  0
VERTEX
  5
2ee
  8
Layer_1
  10
220.46948
  20
101.14047
  0
SEQEND
  0
POLYLINE
  5
2f0
  8
Layer_1
  62
5
  66
1
  10
0
  20
0
  30
0
  0
VERTEX
  5
2f0
  8
Layer_1
  10
222.93292
  20
100.0372
  42
-0.39595945
  0
VERTEX
  5
2f1
  8
Layer_1
  10
223.08029
  20
99.652466
  42
-0.20702891
  0
VERTEX
  5
2f2
  8
Layer_1
  10
222.93924
  20
99.495789
  42
-0.20697086
  0
VERTEX
  5
2f3
  8
Layer_1
  10
222.72845
  20
99.491333
  42
-0.39592769
  0
VERTEX
  5
2f4
  8
Layer_1
  10
222.58107
  20
99.876038
  42
-0.20704021
  0
VERTEX
  5
2f5
  8
Layer_1
  10
222.72214
  20
100.03275
  42
-0.20707244
  0
VERTEX
  5
2f6
  8
Layer_1
  10
222.93292
  20
100.0372
  0
SEQEND
  0
POLYLINE
  5
2f8
  8
Layer_1
  62
5
  66
1
  10
0
  20
0
  30
0
  0
VERTEX
  5
2f8
  8
Layer_1
  10
222.4198
  20
102.72092
  42
-0.39594054
  0
VERTEX
  5
2f9
  8
Layer_1
  10
222.56717
  20
102.33618
  42
-0.20704333
  0
VERTEX
  5
2fa
  8
Layer_1
  10
222.42612
  20
102.1795
  42
-0.20694932
  0
VERTEX
  5
2fb
  8
Layer_1
  10
222.21533
  20
102.17505
  42
-0.39593449
  0
VERTEX
  5
2fc
  8
Layer_1
  10
222.06796
  20
102.55975
  42
-0.20705463
  0
VERTEX
  5
2fd
  8
Layer_1
  10
222.20901
  20
102.71646
  42
-0.20706114
  0
VERTEX
  5
2fe
  8
Layer_1
  10
222.4198
  20
102.72092
  0
SEQEND
  0
POLYLINE
  5
300
  8
Layer_1
  62
5
  66
1
  10
0
  20
0
  30
0
  0
VERTEX
  5
300
  8
Layer_1
  10
223.76807
  20
97.14682
  42
-0.39594734
  0
VERTEX
  5
301
  8
Layer_1
  10
223.91542
  20
96.762115
  42
-0.20708036
  0
VERTEX
  5
302
  8
Layer_1
  10
223.77438
  20
96.605408
  42
-0.20696062
  0
VERTEX
  5
303
  8
Layer_1
  10
223.5636
  20
96.600952
  42
-0.39594054
  0
VERTEX
  5
304
  8
Layer_1
  10
223.41623
  20
96.985687
  42
-0.20706905
  0
VERTEX
  5
305
  8
Layer_1
  10
223.55728
  20
97.142365
  42
-0.20702935
  0
VERTEX
  5
306
  8
Layer_1
  10
223.76807
  20
97.14682
  0
SEQEND
  0
POLYLINE
  5
308
  8
Layer_1
  62
5
  66
1
  10
0
  20
0
  30
0
  0
VERTEX
  5
308
  8
Layer_1
  10
221.07706
  20
98.666534
  42
-0.39594734
  0
VERTEX
  5
309
  8
Layer_1
  10
221.22441
  20
98.281799
  42
-0.20708036
  0
VERTEX
  5
30a
  8
Layer_1
  10
221.08337
  20
98.125122
  42
-0.20696062
  0
VERTEX
  5
30b
  8
Layer_1
  10
220.87259
  20
98.120667
  42
-0.39594054
  0
VERTEX
  5
30c
  8
Layer_1
  10
220.72522
  20
98.505371
  42
-0.20706905
  0
VERTEX
  5
30d
  8
Layer_1
  10
220.86627
  20
98.662079
  42
-0.20702935
  0
VERTEX
  5
30e
  8
Layer_1
  10
221.07706
  20
98.666534
  0
SEQEND
  0
POLYLINE
  5
310
  8
Layer_1
  62
5
  66
1
  10
0
  20
0
  30
0
  0
VERTEX
  5
310
  8
Layer_1
  10
224.53912
  20
101.68387
  42
-0.39594054
  0
VERTEX
  5
311
  8
Layer_1
  10
224.68649
  20
101.29913
  42
-0.20706905
  0
VERTEX
  5
312
  8
Layer_1
  10
224.54544
  20
101.14246
  42
-0.20692884
  0
VERTEX
  5
313
  8
Layer_1
  10
224.33464
  20
101.138
  42
-0.39594734
  0
VERTEX
  5
314
  8
Layer_1
  10
224.18729
  20
101.52271
  42
-0.20708036
  0
VERTEX
  5
315
  8
Layer_1
  10
224.32834
  20
101.67941
  42
-0.20706114
  0
VERTEX
  5
316
  8
Layer_1
  10
224.53912
  20
101.68387
  0
SEQEND
  0
POLYLINE
  5
318
  8
Layer_1
  62
5
  66
1
  10
0
  20
0
  30
0
  0
VERTEX
  5
318
  8
Layer_1
  10
226.22849
  20
100.61063
  42
-0.39594054
  0
VERTEX
  5
319
  8
Layer_1
  10
226.37585
  20
100.22589
  42
-0.20706593
  0
VERTEX
  5
31a
  8
Layer_1
  10
226.2348
  20
100.06921
  42
-0.20698216
  0
VERTEX
  5
31b
  8
Layer_1
  10
226.02402
  20
100.06476
  42
-0.3959466
  0
VERTEX
  5
31c
  8
Layer_1
  10
225.87665
  20
100.44946
  42
-0.20705463
  0
VERTEX
  5
31d
  8
Layer_1
  10
226.0177
  20
100.60617
  42
-0.20707244
  0
VERTEX
  5
31e
  8
Layer_1
  10
226.22849
  20
100.61063
  0
SEQEND
  0
POLYLINE
  5
320
  8
Layer_1
  62
5
  66
1
  10
0
  20
0
  30
0
  0
VERTEX
  5
320
  8
Layer_1
  10
225.53351
  20
97.896271
  42
-0.39594054
  0
VERTEX
  5
321
  8
Layer_1
  10
225.68088
  20
97.511536
  42
-0.20706593
  0
VERTEX
  5
322
  8
Layer_1
  10
225.53981
  20
97.354858
  42
-0.20697192
  0
VERTEX
  5
323
  8
Layer_1
  10
225.32904
  20
97.350403
  42
-0.39595945
  0
VERTEX
  5
324
  8
Layer_1
  10
225.18167
  20
97.735107
  42
-0.20705463
  0
VERTEX
  5
325
  8
Layer_1
  10
225.32272
  20
97.891815
  42
-0.20707139
  0
VERTEX
  5
326
  8
Layer_1
  10
225.53351
  20
97.896271
  0
SEQEND
  0
POLYLINE
  5
328
  8
Layer_1
  62
5
  66
1
  10
0
  20
0
  30
0
  0
VERTEX
  5
328
  8
Layer_1
  10
209.91962
  20
90.219971
  42
-0.38880608
  0
VERTEX
  5
329
  8
Layer_1
  10
209.95798
  20
89.804993
  42
-0.21024048
  0
VERTEX
  5
32a
  8
Layer_1
  10
209.77745
  20
89.7005
  42
-0.21025843
  0
VERTEX
  5
32b
  8
Layer_1
  10
209.57846
  20
89.763031
  42
-0.38878769
  0
VERTEX
  5
32c
  8
Layer_1
  10
209.5401
  20
90.178009
  42
-0.21030225
  0
VERTEX
  5
32d
  8
Layer_1
  10
209.72064
  20
90.282501
  42
-0.21025241
  0
VERTEX
  5
32e
  8
Layer_1
  10
209.91962
  20
90.219971
  0
SEQEND
  0
POLYLINE
  5
330
  8
Layer_1
  62
5
  66
1
  10
0
  20
0
  30
0
  0
VERTEX
  5
330
  8
Layer_1
  10
211.6582
  20
88.66803
  42
-0.38881531
  0
VERTEX
  5
331
  8
Layer_1
  10
211.69656
  20
88.253052
  42
-0.2102596
  0
VERTEX
  5
332
  8
Layer_1
  10
211.51605
  20
88.14856
  42
-0.21027048
  0
VERTEX
  5
333
  8
Layer_1
  10
211.31705
  20
88.21109
  42
-0.38880785
  0
VERTEX
  5
334
  8
Layer_1
  10
211.27869
  20
88.626068
  42
-0.21034653
  0
VERTEX
  5
335
  8
Layer_1
  10
211.45923
  20
88.73056
  42
-0.21026747
  0
VERTEX
  5
336
  8
Layer_1
  10
211.6582
  20
88.66803
  0
SEQEND
  0
POLYLINE
  5
338
  8
Layer_1
  62
5
  66
1
  10
0
  20
0
  30
0
  0
VERTEX
  5
338
  8
Layer_1
  10
212.95357
  20
87.081238
  42
-0.38880608
  0
VERTEX
  5
339
  8
Layer_1
  10
212.99191
  20
86.66626
  42
-0.21021532
  0
VERTEX
  5
33a
  8
Layer_1
  10
212.8114
  20
86.561768
  42
-0.21027048
  0
VERTEX
  5
33b
  8
Layer_1
  10
212.6124
  20
86.624298
  42
-0.38880785
  0
VERTEX
  5
33c
  8
Layer_1
  10
212.57404
  20
87.039276
  42
-0.21034653
  0
VERTEX
  5
33d
  8
Layer_1
  10
212.75458
  20
87.143768
  42
-0.2102494
  0
VERTEX
  5
33e
  8
Layer_1
  10
212.95357
  20
87.081238
  0
SEQEND
  0
POLYLINE
  5
340
  8
Layer_1
  62
5
  66
1
  10
0
  20
0
  30
0
  0
VERTEX
  5
340
  8
Layer_1
  10
215.17749
  20
85.332947
  42
-0.38882453
  0
VERTEX
  5
341
  8
Layer_1
  10
215.21585
  20
84.917969
  42
-0.2102596
  0
VERTEX
  5
342
  8
Layer_1
  10
215.03534
  20
84.813477
  42
-0.21028855
  0
VERTEX
  5
343
  8
Layer_1
  10
214.83633
  20
84.876007
  42
-0.38881708
  0
VERTEX
  5
344
  8
Layer_1
  10
214.79797
  20
85.290985
  42
-0.21034051
  0
VERTEX
  5
345
  8
Layer_1
  10
214.9785
  20
85.395477
  42
-0.21028554
  0
VERTEX
  5
346
  8
Layer_1
  10
215.17749
  20
85.332947
  0
SEQEND
  0
POLYLINE
  5
348
  8
Layer_1
  62
5
  66
1
  10
0
  20
0
  30
0
  0
VERTEX
  5
348
  8
Layer_1
  10
216.27881
  20
93.016724
  42
-0.40632801
  0
VERTEX
  5
349
  8
Layer_1
  10
216.05318
  20
92.68042
  42
-0.20236422
  0
VERTEX
  5
34a
  8
Layer_1
  10
215.84732
  20
92.738831
  42
-0.20239129
  0
VERTEX
  5
34b
  8
Layer_1
  10
215.74559
  20
92.927124
  42
-0.40631412
  0
VERTEX
  5
34c
  8
Layer_1
  10
215.97124
  20
93.263428
  42
-0.20244765
  0
VERTEX
  5
34d
  8
Layer_1
  10
216.17709
  20
93.204987
  42
-0.20240117
  0
VERTEX
  5
34e
  8
Layer_1
  10
216.27881
  20
93.016724
  0
SEQEND
  0
POLYLINE
  5
350
  8
Layer_1
  62
5
  66
1
  10
0
  20
0
  30
0
  0
VERTEX
  5
350
  8
Layer_1
  10
214.09851
  20
92.746338
  42
-0.40631412
  0
VERTEX
  5
351
  8
Layer_1
  10
213.87286
  20
92.410034
  42
-0.20236422
  0
VERTEX
  5
352
  8
Layer_1
  10
213.66702
  20
92.468445
  42
-0.2024179
  0
VERTEX
  5
353
  8
Layer_1
  10
213.56531
  20
92.656738
  42
-0.40632801
  0
VERTEX
  5
354
  8
Layer_1
  10
213.79092
  20
92.993042
  42
-0.20246438
  0
VERTEX
  5
355
  8
Layer_1
  10
213.99678
  20
92.934601
  42
-0.20240802
  0
VERTEX
  5
356
  8
Layer_1
  10
214.09851
  20
92.746338
  0
SEQEND
  0
POLYLINE
  5
358
  8
Layer_1
  62
5
  66
1
  10
0
  20
0
  30
0
  0
VERTEX
  5
358
  8
Layer_1
  10
214.48712
  20
89.980896
  42
-0.40634191
  0
VERTEX
  5
359
  8
Layer_1
  10
214.26147
  20
89.644592
  42
-0.20238095
  0
VERTEX
  5
35a
  8
Layer_1
  10
214.05563
  20
89.703003
  42
-0.2024179
  0
VERTEX
  5
35b
  8
Layer_1
  10
213.95392
  20
89.891296
  42
-0.40632801
  0
VERTEX
  5
35c
  8
Layer_1
  10
214.17953
  20
90.2276
  42
-0.20243092
  0
VERTEX
  5
35d
  8
Layer_1
  10
214.38541
  20
90.169159
  42
-0.20237455
  0
VERTEX
  5
35e
  8
Layer_1
  10
214.48712
  20
89.980896
  0
SEQEND
  0
POLYLINE
  5
360
  8
Layer_1
  62
5
  66
1
  10
0
  20
0
  30
0
  0
VERTEX
  5
360
  8
Layer_1
  10
215.11856
  20
87.779236
  42
-0.40631412
  0
VERTEX
  5
361
  8
Layer_1
  10
214.89291
  20
87.442932
  42
-0.20236422
  0
VERTEX
  5
362
  8
Layer_1
  10
214.68707
  20
87.501343
  42
-0.2024179
  0
VERTEX
  5
363
  8
Layer_1
  10
214.58536
  20
87.689636
  42
-0.40632801
  0
VERTEX
  5
364
  8
Layer_1
  10
214.81097
  20
88.02594
  42
-0.20246438
  0
VERTEX
  5
365
  8
Layer_1
  10
215.01683
  20
87.967499
  42
-0.20240802
  0
VERTEX
  5
366
  8
Layer_1
  10
215.11856
  20
87.779236
  0
SEQEND
  0
POLYLINE
  5
368
  8
Layer_1
  62
5
  66
1
  10
0
  20
0
  30
0
  0
VERTEX
  5
368
  8
Layer_1
  10
217.64236
  20
90.986816
  42
-0.40632801
  0
VERTEX
  5
369
  8
Layer_1
  10
217.41672
  20
90.650513
  42
-0.20238095
  0
VERTEX
  5
36a
  8
Layer_1
  10
217.21088
  20
90.708923
  42
-0.20240802
  0
VERTEX
  5
36b
  8
Layer_1
  10
217.10916
  20
90.897217
  42
-0.40634191
  0
VERTEX
  5
36c
  8
Layer_1
  10
217.33478
  20
91.233521
  42
-0.20246438
  0
VERTEX
  5
36d
  8
Layer_1
  10
217.54065
  20
91.175079
  42
-0.2024179
  0
VERTEX
  5
36e
  8
Layer_1
  10
217.64236
  20
90.986816
  0
SEQEND
  0
POLYLINE
  5
370
  8
Layer_1
  62
5
  66
1
  10
0
  20
0
  30
0
  0
VERTEX
  5
370
  8
Layer_1
  10
220.33087
  20
90.271423
  42
-0.40634191
  0
VERTEX
  5
371
  8
Layer_1
  10
220.10522
  20
89.93512
  42
-0.20238095
  0
VERTEX
  5
372
  8
Layer_1
  10
219.89938
  20
89.99353
  42
-0.2024179
  0
VERTEX
  5
373
  8
Layer_1
  10
219.79767
  20
90.181824
  42
-0.40632801
  0
VERTEX
  5
374
  8
Layer_1
  10
220.02328
  20
90.518127
  42
-0.20243092
  0
VERTEX
  5
375
  8
Layer_1
  10
220.22916
  20
90.459686
  42
-0.20237455
  0
VERTEX
  5
376
  8
Layer_1
  10
220.33087
  20
90.271423
  0
SEQEND
  0
POLYLINE
  5
378
  8
Layer_1
  62
5
  66
1
  10
0
  20
0
  30
0
  0
VERTEX
  5
378
  8
Layer_1
  10
208.14304
  20
87.998047
  42
-0.3999719
  0
VERTEX
  5
379
  8
Layer_1
  10
207.961
  20
87.6315
  42
-0.20530595
  0
VERTEX
  5
37a
  8
Layer_1
  10
207.75076
  20
87.65921
  42
-0.20534429
  0
VERTEX
  5
37b
  8
Layer_1
  10
207.62579
  20
87.830566
  42
-0.40005435
  0
VERTEX
  5
37c
  8
Layer_1
  10
207.80783
  20
88.197083
  42
-0.20519208
  0
VERTEX
  5
37d
  8
Layer_1
  10
208.0181
  20
88.169403
  42
-0.20521363
  0
VERTEX
  5
37e
  8
Layer_1
  10
208.14304
  20
87.998047
  0
SEQEND
  0
POLYLINE
  5
380
  8
Layer_1
  62
5
  66
1
  10
0
  20
0
  30
0
  0
VERTEX
  5
380
  8
Layer_1
  10
205.67303
  20
89.231232
  42
-0.41145996
  0
VERTEX
  5
381
  8
Layer_1
  10
205.4176
  20
88.921448
  0
VERTEX
  5
382
  8
Layer_1
  10
205.31165
  20
88.93866
  0
VERTEX
  5
383
  8
Layer_1
  10
205.22305
  20
88.996948
  0
VERTEX
  5
384
  8
Layer_1
  10
205.16089
  20
89.087311
  0
VERTEX
  5
385
  8
Layer_1
  10
205.13431
  20
89.200775
  42
-0.41151525
  0
VERTEX
  5
386
  8
Layer_1
  10
205.38974
  20
89.510529
  0
VERTEX
  5
387
  8
Layer_1
  10
205.4957
  20
89.493317
  0
VERTEX
  5
388
  8
Layer_1
  10
205.58429
  20
89.435028
  0
VERTEX
  5
389
  8
Layer_1
  10
205.64645
  20
89.344666
  0
VERTEX
  5
38a
  8
Layer_1
  10
205.67303
  20
89.231232
  0
SEQEND
  0
POLYLINE
  5
38c
  8
Layer_1
  62
5
  66
1
  10
0
  20
0
  30
0
  0
VERTEX
  5
38c
  8
Layer_1
  10
200.99245
  20
89.010345
  42
-0.41144433
  0
VERTEX
  5
38d
  8
Layer_1
  10
200.737
  20
88.700562
  0
VERTEX
  5
38e
  8
Layer_1
  10
200.63107
  20
88.717773
  0
VERTEX
  5
38f
  8
Layer_1
  10
200.54245
  20
88.776062
  0
VERTEX
  5
390
  8
Layer_1
  10
200.48029
  20
88.866425
  0
VERTEX
  5
391
  8
Layer_1
  10
200.4537
  20
88.979889
  42
-0.41151668
  0
VERTEX
  5
392
  8
Layer_1
  10
200.70914
  20
89.289642
  0
VERTEX
  5
393
  8
Layer_1
  10
200.81509
  20
89.27243
  0
VERTEX
  5
394
  8
Layer_1
  10
200.90369
  20
89.214142
  0
VERTEX
  5
395
  8
Layer_1
  10
200.96585
  20
89.123779
  0
VERTEX
  5
396
  8
Layer_1
  10
200.99245
  20
89.010345
  0
SEQEND
  0
POLYLINE
  5
398
  8
Layer_1
  62
5
  66
1
  10
0
  20
0
  30
0
  0
VERTEX
  5
398
  8
Layer_1
  10
216.96451
  20
95.49585
  42
-0.40633385
  0
VERTEX
  5
399
  8
Layer_1
  10
216.73886
  20
95.159546
  42
-0.20237077
  0
VERTEX
  5
39a
  8
Layer_1
  10
216.53302
  20
95.217957
  42
-0.2024179
  0
VERTEX
  5
39b
  8
Layer_1
  10
216.4313
  20
95.40625
  42
-0.40632801
  0
VERTEX
  5
39c
  8
Layer_1
  10
216.65694
  20
95.742554
  42
-0.20244765
  0
VERTEX
  5
39d
  8
Layer_1
  10
216.86279
  20
95.684113
  42
-0.20240117
  0
VERTEX
  5
39e
  8
Layer_1
  10
216.96451
  20
95.49585
  0
SEQEND
  0
POLYLINE
  5
3a0
  8
Layer_1
  62
5
  66
1
  10
0
  20
0
  30
0
  0
VERTEX
  5
3a0
  8
Layer_1
  10
222.18448
  20
92.440369
  42
-0.40632801
  0
VERTEX
  5
3a1
  8
Layer_1
  10
221.95885
  20
92.104065
  42
-0.20236422
  0
VERTEX
  5
3a2
  8
Layer_1
  10
221.75299
  20
92.162476
  42
-0.20239129
  0
VERTEX
  5
3a3
  8
Layer_1
  10
221.65126
  20
92.350769
  42
-0.40631412
  0
VERTEX
  5
3a4
  8
Layer_1
  10
221.87691
  20
92.687073
  42
-0.20244765
  0
VERTEX
  5
3a5
  8
Layer_1
  10
222.08276
  20
92.628632
  42
-0.20240117
  0
VERTEX
  5
3a6
  8
Layer_1
  10
222.18448
  20
92.440369
  0
SEQEND
  0
POLYLINE
  5
3a8
  8
Layer_1
  62
5
  66
1
  10
0
  20
0
  30
0
  0
VERTEX
  5
3a8
  8
Layer_1
  10
221.36238
  20
95.268005
  42
-0.40634191
  0
VERTEX
  5
3a9
  8
Layer_1
  10
221.13675
  20
94.931702
  42
-0.20236422
  0
VERTEX
  5
3aa
  8
Layer_1
  10
220.93091
  20
94.990112
  42
-0.20243463
  0
VERTEX
  5
3ab
  8
Layer_1
  10
220.82919
  20
95.178406
  42
-0.40632801
  0
VERTEX
  5
3ac
  8
Layer_1
  10
221.05481
  20
95.514709
  42
-0.20244765
  0
VERTEX
  5
3ad
  8
Layer_1
  10
221.26068
  20
95.456268
  42
-0.20244452
  0
VERTEX
  5
3ae
  8
Layer_1
  10
221.36238
  20
95.268005
  0
SEQEND
  0
POLYLINE
  5
3b0
  8
Layer_1
  62
5
  66
1
  10
0
  20
0
  30
0
  0
VERTEX
  5
3b0
  8
Layer_1
  10
219.25635
  20
96.570618
  42
-0.40632801
  0
VERTEX
  5
3b1
  8
Layer_1
  10
219.0307
  20
96.234314
  42
-0.20236422
  0
VERTEX
  5
3b2
  8
Layer_1
  10
218.82486
  20
96.292725
  42
-0.20240117
  0
VERTEX
  5
3b3
  8
Layer_1
  10
218.72314
  20
96.481018
  42
-0.40632801
  0
VERTEX
  5
3b4
  8
Layer_1
  10
218.94876
  20
96.817322
  42
-0.20244765
  0
VERTEX
  5
3b5
  8
Layer_1
  10
219.15463
  20
96.758881
  42
-0.2024179
  0
VERTEX
  5
3b6
  8
Layer_1
  10
219.25635
  20
96.570618
  0
SEQEND
  0
POLYLINE
  5
3b8
  8
Layer_1
  62
5
  66
1
  10
0
  20
0
  30
0
  0
VERTEX
  5
3b8
  8
Layer_1
  10
184.55942
  20
99.427856
  42
-0.21035283
  0
VERTEX
  5
3b9
  8
Layer_1
  10
184.36203
  20
99.360596
  42
-0.21037178
  0
VERTEX
  5
3ba
  8
Layer_1
  10
184.17917
  20
99.460785
  42
-0.38870119
  0
VERTEX
  5
3bb
  8
Layer_1
  10
184.20926
  20
99.876556
  42
-0.21046219
  0
VERTEX
  5
3bc
  8
Layer_1
  10
184.40665
  20
99.943787
  42
-0.21052365
  0
VERTEX
  5
3bd
  8
Layer_1
  10
184.58954
  20
99.843628
  42
-0.38866128
  0
VERTEX
  5
3be
  8
Layer_1
  10
184.55942
  20
99.427856
  0
SEQEND
  0
POLYLINE
  5
3c0
  8
Layer_1
  62
5
  66
1
  10
0
  20
0
  30
0
  0
VERTEX
  5
3c0
  8
Layer_1
  10
181.88492
  20
98.06311
  42
-0.21043364
  0
VERTEX
  5
3c1
  8
Layer_1
  10
181.68753
  20
97.99585
  42
-0.21026141
  0
VERTEX
  5
3c2
  8
Layer_1
  10
181.50464
  20
98.096039
  42
-0.38862089
  0
VERTEX
  5
3c3
  8
Layer_1
  10
181.53476
  20
98.51181
  42
-0.21046219
  0
VERTEX
  5
3c4
  8
Layer_1
  10
181.73212
  20
98.579041
  42
-0.21037076
  0
VERTEX
  5
3c5
  8
Layer_1
  10
181.91501
  20
98.478882
  42
-0.38862089
  0
VERTEX
  5
3c6
  8
Layer_1
  10
181.88492
  20
98.06311
  0
SEQEND
  0
POLYLINE
  5
3c8
  8
Layer_1
  62
5
  66
1
  10
0
  20
0
  30
0
  0
VERTEX
  5
3c8
  8
Layer_1
  10
179.68045
  20
99.108826
  42
-0.21035283
  0
VERTEX
  5
3c9
  8
Layer_1
  10
179.48306
  20
99.041565
  42
-0.21037178
  0
VERTEX
  5
3ca
  8
Layer_1
  10
179.3002
  20
99.141754
  42
-0.38870119
  0
VERTEX
  5
3cb
  8
Layer_1
  10
179.33029
  20
99.557526
  42
-0.21046219
  0
VERTEX
  5
3cc
  8
Layer_1
  10
179.52768
  20
99.624756
  42
-0.21052365
  0
VERTEX
  5
3cd
  8
Layer_1
  10
179.71057
  20
99.524597
  42
-0.38866128
  0
VERTEX
  5
3ce
  8
Layer_1
  10
179.68045
  20
99.108826
  0
SEQEND
  0
POLYLINE
  5
3d0
  8
Layer_1
  62
5
  66
1
  10
0
  20
0
  30
0
  0
VERTEX
  5
3d0
  8
Layer_1
  10
179.259
  20
101.3952
  42
-0.21035283
  0
VERTEX
  5
3d1
  8
Layer_1
  10
179.06161
  20
101.32794
  42
-0.21037178
  0
VERTEX
  5
3d2
  8
Layer_1
  10
178.87875
  20
101.42813
  42
-0.38870119
  0
VERTEX
  5
3d3
  8
Layer_1
  10
178.90884
  20
101.8439
  42
-0.21046219
  0
VERTEX
  5
3d4
  8
Layer_1
  10
179.10623
  20
101.91113
  42
-0.21052365
  0
VERTEX
  5
3d5
  8
Layer_1
  10
179.28912
  20
101.81097
  42
-0.38866128
  0
VERTEX
  5
3d6
  8
Layer_1
  10
179.259
  20
101.3952
  0
SEQEND
  0
POLYLINE
  5
3d8
  8
Layer_1
  62
5
  66
1
  10
0
  20
0
  30
0
  0
VERTEX
  5
3d8
  8
Layer_1
  10
180.65302
  20
103.203
  42
-0.21043364
  0
VERTEX
  5
3d9
  8
Layer_1
  10
180.45563
  20
103.13574
  42
-0.21026141
  0
VERTEX
  5
3da
  8
Layer_1
  10
180.27274
  20
103.23593
  42
-0.38862089
  0
VERTEX
  5
3db
  8
Layer_1
  10
180.30286
  20
103.6517
  42
-0.21046219
  0
VERTEX
  5
3dc
  8
Layer_1
  10
180.50021
  20
103.71893
  42
-0.21037076
  0
VERTEX
  5
3dd
  8
Layer_1
  10
180.68311
  20
103.61877
  42
-0.38862089
  0
VERTEX
  5
3de
  8
Layer_1
  10
180.65302
  20
103.203
  0
SEQEND
  0
POLYLINE
  5
3e0
  8
Layer_1
  62
5
  66
1
  10
0
  20
0
  30
0
  0
VERTEX
  5
3e0
  8
Layer_1
  10
182.67917
  20
103.94739
  42
-0.21043364
  0
VERTEX
  5
3e1
  8
Layer_1
  10
182.48178
  20
103.88013
  42
-0.21026141
  0
VERTEX
  5
3e2
  8
Layer_1
  10
182.29889
  20
103.98032
  42
-0.38862089
  0
VERTEX
  5
3e3
  8
Layer_1
  10
182.32901
  20
104.39609
  42
-0.21046219
  0
VERTEX
  5
3e4
  8
Layer_1
  10
182.52637
  20
104.46332
  42
-0.21037076
  0
VERTEX
  5
3e5
  8
Layer_1
  10
182.70926
  20
104.36316
  42
-0.38862089
  0
VERTEX
  5
3e6
  8
Layer_1
  10
182.67917
  20
103.94739
  0
SEQEND
  0
POLYLINE
  5
3e8
  8
Layer_1
  62
5
  66
1
  10
0
  20
0
  30
0
  0
VERTEX
  5
3e8
  8
Layer_1
  10
184.42975
  20
103.1853
  42
-0.21043364
  0
VERTEX
  5
3e9
  8
Layer_1
  10
184.23236
  20
103.11804
  42
-0.21026141
  0
VERTEX
  5
3ea
  8
Layer_1
  10
184.04947
  20
103.21823
  42
-0.38862089
  0
VERTEX
  5
3eb
  8
Layer_1
  10
184.07959
  20
103.634
  42
-0.21046219
  0
VERTEX
  5
3ec
  8
Layer_1
  10
184.27695
  20
103.70123
  42
-0.21037076
  0
VERTEX
  5
3ed
  8
Layer_1
  10
184.45984
  20
103.60107
  42
-0.38862089
  0
VERTEX
  5
3ee
  8
Layer_1
  10
184.42975
  20
103.1853
  0
SEQEND
  0
POLYLINE
  5
3f0
  8
Layer_1
  62
5
  66
1
  10
0
  20
0
  30
0
  0
VERTEX
  5
3f0
  8
Layer_1
  10
185.19159
  20
101.46606
  42
-0.21043364
  0
VERTEX
  5
3f1
  8
Layer_1
  10
184.9942
  20
101.3988
  42
-0.21026141
  0
VERTEX
  5
3f2
  8
Layer_1
  10
184.81131
  20
101.49899
  42
-0.38862089
  0
VERTEX
  5
3f3
  8
Layer_1
  10
184.84143
  20
101.91476
  42
-0.21046219
  0
VERTEX
  5
3f4
  8
Layer_1
  10
185.03879
  20
101.98199
  42
-0.21037076
  0
VERTEX
  5
3f5
  8
Layer_1
  10
185.22168
  20
101.88184
  42
-0.38862089
  0
VERTEX
  5
3f6
  8
Layer_1
  10
185.19159
  20
101.46606
  0
SEQEND
  0
CIRCLE
  5
3f8
  8
Layer_1
  62
5
  10
250.19989
  20
131.58099
  30
0
  40
0.24999993
  0
CIRCLE
  5
3f8
  8
Layer_1
  62
5
  10
252.61713
  20
131.58099
  30
0
  40
0.24999993
  0
CIRCLE
  5
3f8
  8
Layer_1
  62
5
  10
255.60315
  20
131.58099
  30
0
  40
0.24999993
  0
CIRCLE
  5
3f8
  8
Layer_1
  62
5
  10
258.02036
  20
131.58099
  30
0
  40
0.24999993
  0
CIRCLE
  5
3f8
  8
Layer_1
  62
5
  10
261.00632
  20
131.58099
  30
0
  40
0.24999993
  0
CIRCLE
  5
3f8
  8
Layer_1
  62
5
  10
263.38278
  20
131.57031
  30
0
  40
0.24999993
  0
CIRCLE
  5
3f8
  8
Layer_1
  62
5
  10
266.05405
  20
131.58099
  30
0
  40
0.24999993
  0
CIRCLE
  5
3f8
  8
Layer_1
  62
5
  10
268.82675
  20
131.58099
  30
0
  40
0.24999993
  0
CIRCLE
  5
3f8
  8
Layer_1
  62
5
  10
271.59946
  20
131.58099
  30
0
  40
0.24999993
  0
CIRCLE
  5
3f8
  8
Layer_1
  62
5
  10
275.05508
  20
131.58099
  30
0
  40
0.24999993
  0
CIRCLE
  5
3f8
  8
Layer_1
  62
5
  10
277.82779
  20
131.58099
  30
0
  40
0.24999993
  0
CIRCLE
  5
3f8
  8
Layer_1
  62
5
  10
280.60049
  20
131.58099
  30
0
  40
0.24999993
  0
CIRCLE
  5
3f8
  8
Layer_1
  62
5
  10
274.06174
  20
100.3446
  30
0
  40
0.24999993
  0
CIRCLE
  5
3f8
  8
Layer_1
  62
5
  10
274.75815
  20
102.65942
  30
0
  40
0.24999993
  0
CIRCLE
  5
3f8
  8
Layer_1
  62
5
  10
275.61832
  20
105.5188
  30
0
  40
0.24999993
  0
CIRCLE
  5
3f8
  8
Layer_1
  62
5
  10
276.31467
  20
107.8335
  30
0
  40
0.24999993
  0
CIRCLE
  5
3f8
  8
Layer_1
  62
5
  10
277.1749
  20
110.69293
  30
0
  40
0.24999993
  0
CIRCLE
  5
3f8
  8
Layer_1
  62
5
  10
277.86978
  20
112.96558
  30
0
  40
0.24999993
  0
CIRCLE
  5
3f8
  8
Layer_1
  62
5
  10
278.62906
  20
115.52673
  30
0
  40
0.24999993
  0
CIRCLE
  5
3f8
  8
Layer_1
  62
5
  10
279.42783
  20
118.18185
  30
0
  40
0.24999993
  0
CIRCLE
  5
3f8
  8
Layer_1
  62
5
  10
280.22653
  20
120.83704
  30
0
  40
0.24999993
  0
CIRCLE
  5
3f8
  8
Layer_1
  62
5
  10
281.22202
  20
124.14612
  30
0
  40
0.24999993
  0
CIRCLE
  5
3f8
  8
Layer_1
  62
5
  10
282.02078
  20
126.80124
  30
0
  40
0.24999993
  0
CIRCLE
  5
3f8
  8
Layer_1
  62
5
  10
282.81955
  20
129.45642
  30
0
  40
0.24999993
  0
CIRCLE
  5
3f8
  8
Layer_1
  62
5
  10
238.29849
  20
100.90417
  30
0
  40
0.24999993
  0
CIRCLE
  5
3f8
  8
Layer_1
  62
5
  10
238.99484
  20
103.21899
  30
0
  40
0.24999993
  0
CIRCLE
  5
3f8
  8
Layer_1
  62
5
  10
239.85504
  20
106.07837
  30
0
  40
0.24999993
  0
CIRCLE
  5
3f8
  8
Layer_1
  62
5
  10
240.55139
  20
108.39307
  30
0
  40
0.24999993
  0
CIRCLE
  5
3f8
  8
Layer_1
  62
5
  10
241.41162
  20
111.2525
  30
0
  40
0.24999993
  0
CIRCLE
  5
3f8
  8
Layer_1
  62
5
  10
242.10654
  20
113.52512
  30
0
  40
0.24999993
  0
CIRCLE
  5
3f8
  8
Layer_1
  62
5
  10
242.86575
  20
116.0863
  30
0
  40
0.24999993
  0
CIRCLE
  5
3f8
  8
Layer_1
  62
5
  10
243.66452
  20
118.74146
  30
0
  40
0.24999993
  0
CIRCLE
  5
3f8
  8
Layer_1
  62
5
  10
244.46329
  20
121.39658
  30
0
  40
0.24999993
  0
CIRCLE
  5
3f8
  8
Layer_1
  62
5
  10
245.45877
  20
124.70569
  30
0
  40
0.24999993
  0
CIRCLE
  5
3f8
  8
Layer_1
  62
5
  10
246.25754
  20
127.36081
  30
0
  40
0.24999993
  0
CIRCLE
  5
3f8
  8
Layer_1
  62
5
  10
247.0563
  20
130.01599
  30
0
  40
0.24999993
  0
CIRCLE
  5
3f8
  8
Layer_1
  62
5
  10
249.9064
  20
50.720093
  30
0
  40
0.24999993
  0
CIRCLE
  5
3f8
  8
Layer_1
  62
5
  10
251.33795
  20
52.667847
  30
0
  40
0.24999993
  0
CIRCLE
  5
3f8
  8
Layer_1
  62
5
  10
253.10632
  20
55.073853
  30
0
  40
0.24999993
  0
CIRCLE
  5
3f8
  8
Layer_1
  62
5
  10
254.5379
  20
57.021606
  30
0
  40
0.24999993
  0
CIRCLE
  5
3f8
  8
Layer_1
  62
5
  10
256.30634
  20
59.427612
  30
0
  40
0.24999993
  0
CIRCLE
  5
3f8
  8
Layer_1
  62
5
  10
257.72232
  20
61.336121
  30
0
  40
0.24999993
  0
CIRCLE
  5
3f8
  8
Layer_1
  62
5
  10
259.29568
  20
63.494995
  30
0
  40
0.24999993
  0
CIRCLE
  5
3f8
  8
Layer_1
  62
5
  10
260.93771
  20
65.729126
  30
0
  40
0.24999993
  0
CIRCLE
  5
3f8
  8
Layer_1
  62
5
  10
262.5798
  20
67.963257
  30
0
  40
0.24999993
  0
CIRCLE
  5
3f8
  8
Layer_1
  62
5
  10
264.62625
  20
70.747742
  30
0
  40
0.24999993
  0
CIRCLE
  5
3f8
  8
Layer_1
  62
5
  10
266.26834
  20
72.981873
  30
0
  40
0.24999993
  0
CIRCLE
  5
3f8
  8
Layer_1
  62
5
  10
267.91043
  20
75.216064
  30
0
  40
0.24999993
  0
CIRCLE
  5
3f8
  8
Layer_1
  62
5
  10
248.18283
  20
52.727295
  30
0
  40
0.24999993
  0
CIRCLE
  5
3f8
  8
Layer_1
  62
5
  10
248.17273
  20
55.144531
  30
0
  40
0.24999993
  0
CIRCLE
  5
3f8
  8
Layer_1
  62
5
  10
248.16025
  20
58.130493
  30
0
  40
0.24999993
  0
CIRCLE
  5
3f8
  8
Layer_1
  62
5
  10
248.15015
  20
60.547668
  30
0
  40
0.24999993
  0
CIRCLE
  5
3f8
  8
Layer_1
  62
5
  10
248.13766
  20
63.53363
  30
0
  40
0.24999993
  0
CIRCLE
  5
3f8
  8
Layer_1
  62
5
  10
248.13849
  20
65.910156
  30
0
  40
0.24999993
  0
CIRCLE
  5
3f8
  8
Layer_1
  62
5
  10
248.11655
  20
68.58136
  30
0
  40
0.24999993
  0
CIRCLE
  5
3f8
  8
Layer_1
  62
5
  10
248.10495
  20
71.354004
  30
0
  40
0.24999993
  0
CIRCLE
  5
3f8
  8
Layer_1
  62
5
  10
248.09338
  20
74.126709
  30
0
  40
0.24999993
  0
CIRCLE
  5
3f8
  8
Layer_1
  62
5
  10
248.07892
  20
77.582275
  30
0
  40
0.24999993
  0
CIRCLE
  5
3f8
  8
Layer_1
  62
5
  10
248.06732
  20
80.35498
  30
0
  40
0.24999993
  0
CIRCLE
  5
3f8
  8
Layer_1
  62
5
  10
248.05573
  20
83.127686
  30
0
  40
0.24999993
  0
CIRCLE
  5
3f8
  8
Layer_1
  62
5
  10
273.13901
  20
98.921631
  30
0
  40
0.24999993
  0
CIRCLE
  5
3f8
  8
Layer_1
  62
5
  10
275.69174
  20
98.921631
  30
0
  40
0.24999993
  0
CIRCLE
  5
3f8
  8
Layer_1
  62
5
  10
277.95126
  20
98.921631
  30
0
  40
0.24999993
  0
CIRCLE
  5
3f8
  8
Layer_1
  62
5
  10
280.17624
  20
98.904419
  30
0
  40
0.24999993
  0
CIRCLE
  5
3f8
  8
Layer_1
  62
5
  10
282.33212
  20
98.879211
  30
0
  40
0.24999993
  0
CIRCLE
  5
3f8
  8
Layer_1
  62
5
  10
284.21866
  20
98.10437
  30
0
  40
0.24999993
  0
CIRCLE
  5
3f8
  8
Layer_1
  62
5
  10
284.15128
  20
96.116821
  30
0
  40
0.24999993
  0
CIRCLE
  5
3f8
  8
Layer_1
  62
5
  10
282.56796
  20
94.297668
  30
0
  40
0.24999993
  0
CIRCLE
  5
3f8
  8
Layer_1
  62
5
  10
281.25412
  20
92.444824
  30
0
  40
0.24999993
  0
CIRCLE
  5
3f8
  8
Layer_1
  62
5
  10
279.76755
  20
90.21814
  30
0
  40
0.24999993
  0
CIRCLE
  5
3f8
  8
Layer_1
  62
5
  10
278.12265
  20
87.95636
  30
0
  40
0.24999993
  0
CIRCLE
  5
3f8
  8
Layer_1
  62
5
  10
276.47775
  20
85.489014
  30
0
  40
0.24999993
  0
CIRCLE
  5
3f8
  8
Layer_1
  62
5
  10
274.73001
  20
83.12439
  30
0
  40
0.24999993
  0
CIRCLE
  5
3f8
  8
Layer_1
  62
5
  10
272.98227
  20
81.171021
  30
0
  40
0.24999993
  0
CIRCLE
  5
3f8
  8
Layer_1
  62
5
  10
271.13919
  20
78.581055
  30
0
  40
0.24999993
  0
CIRCLE
  5
3f8
  8
Layer_1
  62
5
  10
269.69247
  20
76.853149
  30
0
  40
0.24999993
  0
CIRCLE
  5
3f8
  8
Layer_1
  62
5
  10
247.58887
  20
86.619873
  30
0
  40
0.24999993
  0
CIRCLE
  5
3f8
  8
Layer_1
  62
5
  10
244.81305
  20
86.928284
  30
0
  40
0.24999993
  0
CIRCLE
  5
3f8
  8
Layer_1
  62
5
  10
241.93445
  20
87.031128
  30
0
  40
0.24999993
  0
CIRCLE
  5
3f8
  8
Layer_1
  62
5
  10
239.36426
  20
87.133911
  30
0
  40
0.24999993
  0
CIRCLE
  5
3f8
  8
Layer_1
  62
5
  10
236.48566
  20
87.339478
  30
0
  40
0.24999993
  0
CIRCLE
  5
3f8
  8
Layer_1
  62
5
  10
237.20532
  20
98.134277
  30
0
  40
0.24999993
  0
CIRCLE
  5
3f8
  8
Layer_1
  62
5
  10
236.07443
  20
95.358521
  30
0
  40
0.24999993
  0
CIRCLE
  5
3f8
  8
Layer_1
  62
5
  10
235.25198
  20
92.891113
  30
0
  40
0.24999993
  0
CIRCLE
  5
3f8
  8
Layer_1
  62
5
  10
234.41666
  20
89.742676
  30
0
  40
0.24999993
  0
CIRCLE
  5
3f8
  8
Layer_1
  62
5
  10
258.16226
  20
112.05487
  30
0
  40
2.4999993
  0
CIRCLE
  5
3f8
  8
Layer_1
  62
5
  10
257.68845
  20
101.62
  30
0
  40
0.24999993
  0
CIRCLE
  5
3f8
  8
Layer_1
  62
5
  10
257.67685
  20
104.3927
  30
0
  40
0.24999993
  0
CIRCLE
  5
3f8
  8
Layer_1
  62
5
  10
257.66525
  20
107.16534
  30
0
  40
0.24999993
  0
CIRCLE
  5
3f8
  8
Layer_1
  62
5
  10
255.5694
  20
116.73782
  30
0
  40
0.24999993
  0
CIRCLE
  5
3f8
  8
Layer_1
  62
5
  10
255.55786
  20
119.51056
  30
0
  40
0.24999993
  0
CIRCLE
  5
3f8
  8
Layer_1
  62
5
  10
255.54626
  20
122.28323
  30
0
  40
0.24999993
  0
CIRCLE
  5
3f8
  8
Layer_1
  62
5
  10
260.19571
  20
116.60934
  30
0
  40
0.24999993
  0
CIRCLE
  5
3f8
  8
Layer_1
  62
5
  10
260.18411
  20
119.38205
  30
0
  40
0.24999993
  0
CIRCLE
  5
3f8
  8
Layer_1
  62
5
  10
260.17252
  20
122.15469
  30
0
  40
0.24999993
  0
CIRCLE
  5
3f8
  8
Layer_1
  62
5
  10
254.79199
  20
79.285645
  30
0
  40
0.24999993
  0
CIRCLE
  5
3f8
  8
Layer_1
  62
5
  10
254.78046
  20
82.05835
  30
0
  40
0.24999993
  0
CIRCLE
  5
3f8
  8
Layer_1
  62
5
  10
254.76886
  20
84.831055
  30
0
  40
0.24999993
  0
CIRCLE
  5
3f8
  8
Layer_1
  62
5
  10
259.16129
  20
79.285645
  30
0
  40
0.24999993
  0
CIRCLE
  5
3f8
  8
Layer_1
  62
5
  10
259.14969
  20
82.05835
  30
0
  40
0.24999993
  0
CIRCLE
  5
3f8
  8
Layer_1
  62
5
  10
259.13809
  20
84.831055
  30
0
  40
0.24999993
  0
CIRCLE
  5
3f8
  8
Layer_1
  62
5
  10
257.99948
  20
119.25351
  30
0
  40
0.24999993
  0
CIRCLE
  5
3f8
  8
Layer_1
  62
5
  10
256.96509
  20
81.929871
  30
0
  40
0.24999993
  0
CIRCLE
  5
3f8
  8
Layer_1
  62
5
  10
259.70078
  20
93.316895
  30
0
  40
0.24999993
  0
CIRCLE
  5
3f8
  8
Layer_1
  62
5
  10
254.43188
  20
93.445435
  30
0
  40
0.24999993
  0
CIRCLE
  5
3f8
  8
Layer_1
  62
5
  10
259.31522
  20
95.758545
  30
0
  40
0.24999993
  0
CIRCLE
  5
3f8
  8
Layer_1
  62
5
  10
256.74506
  20
96.401123
  30
0
  40
0.24999993
  0
CIRCLE
  5
3f8
  8
Layer_1
  62
5
  10
259.70078
  20
91.132263
  30
0
  40
0.24999993
  0
CIRCLE
  5
3f8
  8
Layer_1
  62
5
  10
257.38754
  20
90.489746
  30
0
  40
0.24999993
  0
CIRCLE
  5
3f8
  8
Layer_1
  62
5
  10
255.33148
  20
91.260742
  30
0
  40
0.24999993
  0
CIRCLE
  5
3f8
  8
Layer_1
  62
5
  10
254.81744
  20
95.116028
  30
0
  40
0.24999993
  0
CIRCLE
  5
3f8
  8
Layer_1
  62
5
  10
257.75351
  20
93.311279
  30
0
  40
0.24999993
  0
POLYLINE
  5
3f8
  8
Layer_1
  62
5
  66
1
  10
0
  20
0
  30
0
  0
VERTEX
  5
3f8
  8
Layer_1
  10
234.05052
  20
85.821167
  0
VERTEX
  5
3f9
  8
Layer_1
  10
234.17662
  20
85.722351
  42
0.015437058
  0
VERTEX
  5
3fa
  8
Layer_1
  10
234.43993
  20
85.539673
  0
VERTEX
  5
3fb
  8
Layer_1
  10
234.57692
  20
85.456329
  0
VERTEX
  5
3fc
  8
Layer_1
  10
234.71687
  20
85.37851
  0
VERTEX
  5
3fd
  8
Layer_1
  10
234.86
  20
85.306305
  0
VERTEX
  5
3fe
  8
Layer_1
  10
235.00572
  20
85.239777
  0
VERTEX
  5
3ff
  8
Layer_1
  10
235.15401
  20
85.178986
  0
VERTEX
  5
400
  8
Layer_1
  10
235.30464
  20
85.124176
  0
VERTEX
  5
401
  8
Layer_1
  10
235.45729
  20
85.07547
  0
VERTEX
  5
402
  8
Layer_1
  10
235.61168
  20
85.032654
  0
VERTEX
  5
403
  8
Layer_1
  10
235.76768
  20
84.996033
  0
VERTEX
  5
404
  8
Layer_1
  10
235.92506
  20
84.965576
  0
VERTEX
  5
405
  8
Layer_1
  10
236.08345
  20
84.941406
  0
VERTEX
  5
406
  8
Layer_1
  10
236.24263
  20
84.923431
  0
VERTEX
  5
407
  8
Layer_1
  10
236.40257
  20
84.911713
  0
VERTEX
  5
408
  8
Layer_1
  10
236.61617
  20
84.906189
  0
VERTEX
  5
409
  8
Layer_1
  10
245.78603
  20
84.906189
  0
VERTEX
  5
40a
  8
Layer_1
  10
245.78603
  20
52.640259
  0
VERTEX
  5
40b
  8
Layer_1
  10
245.78905
  20
52.480103
  0
VERTEX
  5
40c
  8
Layer_1
  10
245.79805
  20
52.32019
  0
VERTEX
  5
40d
  8
Layer_1
  10
245.81383
  20
52.160645
  0
VERTEX
  5
40e
  8
Layer_1
  10
245.83583
  20
52.001831
  0
VERTEX
  5
40f
  8
Layer_1
  10
245.86433
  20
51.844238
  0
VERTEX
  5
410
  8
Layer_1
  10
245.89885
  20
51.687683
  0
VERTEX
  5
411
  8
Layer_1
  10
245.93965
  20
51.532654
  0
VERTEX
  5
412
  8
Layer_1
  10
245.98656
  20
51.379456
  0
VERTEX
  5
413
  8
Layer_1
  10
246.03914
  20
51.22821
  0
VERTEX
  5
414
  8
Layer_1
  10
246.09795
  20
51.079102
  0
VERTEX
  5
415
  8
Layer_1
  10
246.16264
  20
50.932434
  0
VERTEX
  5
416
  8
Layer_1
  10
246.23296
  20
50.788513
  0
VERTEX
  5
417
  8
Layer_1
  10
246.30894
  20
50.647339
  0
VERTEX
  5
418
  8
Layer_1
  10
246.39055
  20
50.509399
  0
VERTEX
  5
419
  8
Layer_1
  10
246.47746
  20
50.374756
  0
VERTEX
  5
41a
  8
Layer_1
  10
246.56944
  20
50.243713
  0
VERTEX
  5
41b
  8
Layer_1
  10
246.66685
  20
50.116211
  0
VERTEX
  5
41c
  8
Layer_1
  10
246.769
  20
49.992859
  0
VERTEX
  5
41d
  8
Layer_1
  10
246.87608
  20
49.873474
  0
VERTEX
  5
41e
  8
Layer_1
  10
246.98775
  20
49.758667
  0
VERTEX
  5
41f
  8
Layer_1
  10
247.10374
  20
49.648193
  0
VERTEX
  5
420
  8
Layer_1
  10
247.22411
  20
49.542297
  0
VERTEX
  5
421
  8
Layer_1
  10
247.34865
  20
49.441345
  0
VERTEX
  5
422
  8
Layer_1
  10
247.47691
  20
49.34552
  0
VERTEX
  5
423
  8
Layer_1
  10
247.60918
  20
49.254639
  0
VERTEX
  5
424
  8
Layer_1
  10
247.74458
  20
49.169128
  0
VERTEX
  5
425
  8
Layer_1
  10
247.88335
  20
49.089172
  0
VERTEX
  5
426
  8
Layer_1
  10
248.02528
  20
49.014526
  0
VERTEX
  5
427
  8
Layer_1
  10
248.17
  20
48.945618
  0
VERTEX
  5
428
  8
Layer_1
  10
248.31731
  20
48.88269
  0
VERTEX
  5
429
  8
Layer_1
  10
248.46696
  20
48.825439
  0
VERTEX
  5
42a
  8
Layer_1
  10
248.61879
  20
48.77417
  0
VERTEX
  5
42b
  8
Layer_1
  10
248.77263
  20
48.728882
  0
VERTEX
  5
42c
  8
Layer_1
  10
248.92802
  20
48.68988
  0
VERTEX
  5
42d
  8
Layer_1
  10
249.08482
  20
48.656799
  0
VERTEX
  5
42e
  8
Layer_1
  10
249.24278
  20
48.630066
  0
VERTEX
  5
42f
  8
Layer_1
  10
249.40175
  20
48.60968
  0
VERTEX
  5
430
  8
Layer_1
  10
249.56133
  20
48.595398
  0
VERTEX
  5
431
  8
Layer_1
  10
249.72148
  20
48.587692
  0
VERTEX
  5
432
  8
Layer_1
  10
249.88164
  20
48.58609
  0
VERTEX
  5
433
  8
Layer_1
  10
250.04247
  20
48.590897
  0
VERTEX
  5
434
  8
Layer_1
  10
250.20241
  20
48.602188
  0
VERTEX
  5
435
  8
Layer_1
  10
250.36177
  20
48.619583
  0
VERTEX
  5
436
  8
Layer_1
  10
250.52016
  20
48.643326
  0
VERTEX
  5
437
  8
Layer_1
  10
250.67754
  20
48.673233
  0
VERTEX
  5
438
  8
Layer_1
  10
250.83372
  20
48.709488
  0
VERTEX
  5
439
  8
Layer_1
  10
250.98836
  20
48.751846
  0
VERTEX
  5
43a
  8
Layer_1
  10
251.14119
  20
48.800308
  0
VERTEX
  5
43b
  8
Layer_1
  10
251.29182
  20
48.854568
  0
VERTEX
  5
43c
  8
Layer_1
  10
251.44029
  20
48.914932
  0
VERTEX
  5
43d
  8
Layer_1
  10
251.5862
  20
48.981079
  0
VERTEX
  5
43e
  8
Layer_1
  10
251.72954
  20
49.052917
  0
VERTEX
  5
43f
  8
Layer_1
  10
251.86971
  20
49.13031
  0
VERTEX
  5
440
  8
Layer_1
  10
252.00688
  20
49.213257
  0
VERTEX
  5
441
  8
Layer_1
  10
252.1407
  20
49.30159
  0
VERTEX
  5
442
  8
Layer_1
  10
252.27077
  20
49.395218
  0
VERTEX
  5
443
  8
Layer_1
  10
252.39708
  20
49.49379
  0
VERTEX
  5
444
  8
Layer_1
  10
252.51942
  20
49.597366
  0
VERTEX
  5
445
  8
Layer_1
  10
252.63762
  20
49.70546
  0
VERTEX
  5
446
  8
Layer_1
  10
252.75145
  20
49.818253
  0
VERTEX
  5
447
  8
Layer_1
  10
252.86073
  20
49.935684
  0
VERTEX
  5
448
  8
Layer_1
  10
252.96526
  20
50.057022
  0
VERTEX
  5
449
  8
Layer_1
  10
253.10997
  20
50.242935
  0
VERTEX
  5
44a
  8
Layer_1
  10
285.68488
  20
94.672302
  0
VERTEX
  5
44b
  8
Layer_1
  10
285.77716
  20
94.803589
  0
VERTEX
  5
44c
  8
Layer_1
  10
285.86407
  20
94.938171
  0
VERTEX
  5
44d
  8
Layer_1
  10
285.94556
  20
95.076172
  0
VERTEX
  5
44e
  8
Layer_1
  10
286.02155
  20
95.217102
  0
VERTEX
  5
44f
  8
Layer_1
  10
286.09204
  20
95.361023
  0
VERTEX
  5
450
  8
Layer_1
  10
286.15656
  20
95.507751
  0
VERTEX
  5
451
  8
Layer_1
  10
286.21539
  20
95.656799
  0
VERTEX
  5
452
  8
Layer_1
  10
286.26825
  20
95.808044
  0
VERTEX
  5
453
  8
Layer_1
  10
286.31519
  20
95.961304
  0
VERTEX
  5
454
  8
Layer_1
  10
286.35596
  20
96.116272
  0
VERTEX
  5
455
  8
Layer_1
  10
286.39056
  20
96.272888
  0
VERTEX
  5
456
  8
Layer_1
  10
286.41888
  20
96.430481
  0
VERTEX
  5
457
  8
Layer_1
  10
286.44104
  20
96.589233
  0
VERTEX
  5
458
  8
Layer_1
  10
286.45685
  20
96.748779
  0
VERTEX
  5
459
  8
Layer_1
  10
286.46686
  20
96.908752
  0
VERTEX
  5
45a
  8
Layer_1
  10
286.46985
  20
97.068909
  0
VERTEX
  5
45b
  8
Layer_1
  10
286.46686
  20
97.229248
  0
VERTEX
  5
45c
  8
Layer_1
  10
286.45685
  20
97.389221
  0
VERTEX
  5
45d
  8
Layer_1
  10
286.44128
  20
97.548584
  0
VERTEX
  5
45e
  8
Layer_1
  10
286.41907
  20
97.707336
  0
VERTEX
  5
45f
  8
Layer_1
  10
286.39081
  20
97.865112
  0
VERTEX
  5
460
  8
Layer_1
  10
286.35638
  20
98.021545
  0
VERTEX
  5
461
  8
Layer_1
  10
286.31561
  20
98.176514
  0
VERTEX
  5
462
  8
Layer_1
  10
286.26892
  20
98.329773
  0
VERTEX
  5
463
  8
Layer_1
  10
286.216
  20
98.481201
  0
VERTEX
  5
464
  8
Layer_1
  10
286.15723
  20
98.630249
  0
VERTEX
  5
465
  8
Layer_1
  10
286.09271
  20
98.776978
  0
VERTEX
  5
466
  8
Layer_1
  10
286.0224
  20
98.920898
  0
VERTEX
  5
467
  8
Layer_1
  10
285.94641
  20
99.062012
  0
VERTEX
  5
468
  8
Layer_1
  10
285.86487
  20
99.200012
  0
VERTEX
  5
469
  8
Layer_1
  10
285.77795
  20
99.334656
  0
VERTEX
  5
46a
  8
Layer_1
  10
285.68585
  20
99.465698
  0
VERTEX
  5
46b
  8
Layer_1
  10
285.58868
  20
99.593201
  0
VERTEX
  5
46c
  8
Layer_1
  10
285.48633
  20
99.716553
  0
VERTEX
  5
46d
  8
Layer_1
  10
285.37946
  20
99.835876
  0
VERTEX
  5
46e
  8
Layer_1
  10
285.26776
  20
99.950928
  0
VERTEX
  5
46f
  8
Layer_1
  10
285.15179
  20
100.0614
  0
VERTEX
  5
470
  8
Layer_1
  10
285.03137
  20
100.16711
  0
VERTEX
  5
471
  8
Layer_1
  10
284.90686
  20
100.26807
  0
VERTEX
  5
472
  8
Layer_1
  10
284.77863
  20
100.36407
  0
VERTEX
  5
473
  8
Layer_1
  10
284.64655
  20
100.45496
  0
VERTEX
  5
474
  8
Layer_1
  10
284.51093
  20
100.54047
  0
VERTEX
  5
475
  8
Layer_1
  10
284.37219
  20
100.62042
  0
VERTEX
  5
476
  8
Layer_1
  10
284.23022
  20
100.69507
  0
VERTEX
  5
477
  8
Layer_1
  10
284.08569
  20
100.76398
  0
VERTEX
  5
478
  8
Layer_1
  10
283.93842
  20
100.82715
  0
VERTEX
  5
479
  8
Layer_1
  10
283.78857
  20
100.88434
  0
VERTEX
  5
47a
  8
Layer_1
  10
283.6369
  20
100.93561
  0
VERTEX
  5
47b
  8
Layer_1
  10
283.48309
  20
100.98096
  0
VERTEX
  5
47c
  8
Layer_1
  10
283.3277
  20
101.02017
  0
VERTEX
  5
47d
  8
Layer_1
  10
283.1709
  20
101.05301
  0
VERTEX
  5
47e
  8
Layer_1
  10
283.01294
  20
101.07974
  0
VERTEX
  5
47f
  8
Layer_1
  10
282.85394
  20
101.10037
  0
VERTEX
  5
480
  8
Layer_1
  10
282.69421
  20
101.11441
  0
VERTEX
  5
481
  8
Layer_1
  10
282.53424
  20
101.12231
  0
VERTEX
  5
482
  8
Layer_1
  10
282.41528
  20
101.12408
  0
VERTEX
  5
483
  8
Layer_1
  10
275.87781
  20
101.12408
  0
VERTEX
  5
484
  8
Layer_1
  10
284.92291
  20
128.24933
  0
VERTEX
  5
485
  8
Layer_1
  10
284.97064
  20
128.40216
  0
VERTEX
  5
486
  8
Layer_1
  10
285.01221
  20
128.55701
  0
VERTEX
  5
487
  8
Layer_1
  10
285.04761
  20
128.71338
  0
VERTEX
  5
488
  8
Layer_1
  10
285.0769
  20
128.87079
  0
VERTEX
  5
489
  8
Layer_1
  10
285.09991
  20
129.02954
  0
VERTEX
  5
48a
  8
Layer_1
  10
285.11676
  20
129.1889
  0
VERTEX
  5
48b
  8
Layer_1
  10
285.12708
  20
129.34888
  0
VERTEX
  5
48c
  8
Layer_1
  10
285.13104
  20
129.50903
  0
VERTEX
  5
48d
  8
Layer_1
  10
285.12903
  20
129.66919
  0
VERTEX
  5
48e
  8
Layer_1
  10
285.12006
  20
129.82935
  0
VERTEX
  5
48f
  8
Layer_1
  10
285.10504
  20
129.98889
  0
VERTEX
  5
490
  8
Layer_1
  10
285.0838
  20
130.14764
  0
VERTEX
  5
491
  8
Layer_1
  10
285.05652
  20
130.30542
  0
VERTEX
  5
492
  8
Layer_1
  10
285.02258
  20
130.46222
  0
VERTEX
  5
493
  8
Layer_1
  10
284.98279
  20
130.61743
  0
VERTEX
  5
494
  8
Layer_1
  10
284.93689
  20
130.77087
  0
VERTEX
  5
495
  8
Layer_1
  10
284.88483
  20
130.92249
  0
VERTEX
  5
496
  8
Layer_1
  10
284.82703
  20
131.07196
  0
VERTEX
  5
497
  8
Layer_1
  10
284.76331
  20
131.21887
  0
VERTEX
  5
498
  8
Layer_1
  10
284.6936
  20
131.3634
  0
VERTEX
  5
499
  8
Layer_1
  10
284.61841
  20
131.50494
  0
SEQEND
  0
POLYLINE
  5
49b
  8
Layer_1
  62
5
  66
1
  10
0
  20
0
  30
0
  0
VERTEX
  5
49b
  8
Layer_1
  10
283.32635
  20
132.90479
  0
VERTEX
  5
49c
  8
Layer_1
  10
283.19116
  20
132.99109
  0
SEQEND
  0
POLYLINE
  5
49e
  8
Layer_1
  62
5
  66
1
  10
0
  20
0
  30
0
  0
VERTEX
  5
49e
  8
Layer_1
  10
283.19116
  20
132.99109
  0
VERTEX
  5
49f
  8
Layer_1
  10
283.05273
  20
133.07178
  0
VERTEX
  5
4a0
  8
Layer_1
  10
282.91144
  20
133.14719
  0
VERTEX
  5
4a1
  8
Layer_1
  10
282.76709
  20
133.2168
  0
VERTEX
  5
4a2
  8
Layer_1
  10
282.62018
  20
133.28079
  0
VERTEX
  5
4a3
  8
Layer_1
  10
282.47076
  20
133.33881
  0
VERTEX
  5
4a4
  8
Layer_1
  10
282.31927
  20
133.3909
  0
VERTEX
  5
4a5
  8
Layer_1
  10
282.16565
  20
133.43701
  0
VERTEX
  5
4a6
  8
Layer_1
  10
282.01044
  20
133.47699
  0
VERTEX
  5
4a7
  8
Layer_1
  10
281.85388
  20
133.51089
  0
VERTEX
  5
4a8
  8
Layer_1
  10
281.69611
  20
133.5386
  0
VERTEX
  5
4a9
  8
Layer_1
  10
281.53729
  20
133.55981
  0
VERTEX
  5
4aa
  8
Layer_1
  10
281.37775
  20
133.57489
  0
VERTEX
  5
4ab
  8
Layer_1
  10
281.21759
  20
133.58389
  0
VERTEX
  5
4ac
  8
Layer_1
  10
281.0733
  20
133.58591
  0
VERTEX
  5
4ad
  8
Layer_1
  10
249.16594
  20
133.55872
  0
VERTEX
  5
4ae
  8
Layer_1
  10
249.00557
  20
133.55569
  0
VERTEX
  5
4af
  8
Layer_1
  10
248.84563
  20
133.54572
  0
VERTEX
  5
4b0
  8
Layer_1
  10
248.68626
  20
133.52969
  0
VERTEX
  5
4b1
  8
Layer_1
  10
248.52748
  20
133.50751
  0
VERTEX
  5
4b2
  8
Layer_1
  10
248.36971
  20
133.479
  0
VERTEX
  5
4b3
  8
Layer_1
  10
248.2133
  20
133.4444
  0
VERTEX
  5
4b4
  8
Layer_1
  10
248.0583
  20
133.40338
  0
VERTEX
  5
4b5
  8
Layer_1
  10
247.90508
  20
133.35651
  0
VERTEX
  5
4b6
  8
Layer_1
  10
247.75383
  20
133.30341
  0
VERTEX
  5
4b7
  8
Layer_1
  10
247.60497
  20
133.2446
  0
VERTEX
  5
4b8
  8
Layer_1
  10
247.45827
  20
133.17981
  0
VERTEX
  5
4b9
  8
Layer_1
  10
247.31435
  20
133.10941
  0
VERTEX
  5
4ba
  8
Layer_1
  10
247.17339
  20
133.0332
  0
VERTEX
  5
4bb
  8
Layer_1
  10
247.03542
  20
132.9516
  0
VERTEX
  5
4bc
  8
Layer_1
  10
246.9008
  20
132.86462
  0
VERTEX
  5
4bd
  8
Layer_1
  10
246.76994
  20
132.77231
  0
VERTEX
  5
4be
  8
Layer_1
  10
246.64268
  20
132.67493
  0
VERTEX
  5
4bf
  8
Layer_1
  10
246.5193
  20
132.57275
  0
VERTEX
  5
4c0
  8
Layer_1
  10
246.40013
  20
132.46552
  0
VERTEX
  5
4c1
  8
Layer_1
  10
246.28511
  20
132.35382
  0
VERTEX
  5
4c2
  8
Layer_1
  10
246.17485
  20
132.23761
  0
VERTEX
  5
4c3
  8
Layer_1
  10
246.06914
  20
132.11707
  0
VERTEX
  5
4c4
  8
Layer_1
  10
245.96837
  20
131.99255
  0
VERTEX
  5
4c5
  8
Layer_1
  10
245.87257
  20
131.86407
  0
VERTEX
  5
4c6
  8
Layer_1
  10
245.78188
  20
131.73199
  0
VERTEX
  5
4c7
  8
Layer_1
  10
245.6964
  20
131.59644
  0
VERTEX
  5
4c8
  8
Layer_1
  10
245.61638
  20
131.45746
  0
VERTEX
  5
4c9
  8
Layer_1
  10
245.54198
  20
131.31549
  0
VERTEX
  5
4ca
  8
Layer_1
  10
245.47328
  20
131.17078
  0
VERTEX
  5
4cb
  8
Layer_1
  10
245.41029
  20
131.0235
  0
VERTEX
  5
4cc
  8
Layer_1
  10
245.35329
  20
130.87366
  0
VERTEX
  5
4cd
  8
Layer_1
  10
245.29628
  20
130.70337
  0
VERTEX
  5
4ce
  8
Layer_1
  10
232.74297
  20
90.159668
  0
VERTEX
  5
4cf
  8
Layer_1
  10
232.69856
  20
90.005859
  0
VERTEX
  5
4d0
  8
Layer_1
  10
232.66035
  20
89.850037
  0
VERTEX
  5
4d1
  8
Layer_1
  10
232.62825
  20
89.693054
  0
VERTEX
  5
4d2
  8
Layer_1
  10
232.60255
  20
89.534912
  0
VERTEX
  5
4d3
  8
Layer_1
  10
232.58296
  20
89.375916
  0
VERTEX
  5
4d4
  8
Layer_1
  10
232.56975
  20
89.216187
  0
VERTEX
  5
4d5
  8
Layer_1
  10
232.56276
  20
89.05603
  0
VERTEX
  5
4d6
  8
Layer_1
  10
232.56215
  20
88.895874
  0
VERTEX
  5
4d7
  8
Layer_1
  10
232.56813
  20
88.735718
  0
VERTEX
  5
4d8
  8
Layer_1
  10
232.58003
  20
88.575928
  0
VERTEX
  5
4d9
  8
Layer_1
  10
232.59843
  20
88.416748
  0
VERTEX
  5
4da
  8
Layer_1
  10
232.62315
  20
88.258423
  0
VERTEX
  5
4db
  8
Layer_1
  10
232.65385
  20
88.101013
  0
VERTEX
  5
4dc
  8
Layer_1
  10
232.69106
  20
87.94519
  0
VERTEX
  5
4dd
  8
Layer_1
  10
232.73424
  20
87.790771
  0
VERTEX
  5
4de
  8
Layer_1
  10
232.78355
  20
87.638367
  0
VERTEX
  5
4df
  8
Layer_1
  10
232.83876
  20
87.487915
  0
VERTEX
  5
4e0
  8
Layer_1
  10
232.89995
  20
87.339844
  0
VERTEX
  5
4e1
  8
Layer_1
  10
232.96684
  20
87.194153
  0
VERTEX
  5
4e2
  8
Layer_1
  10
233.03954
  20
87.051392
  0
SEQEND
  0
CIRCLE
  5
4e4
  8
Layer_1
  62
5
  10
139.41608
  20
106.70276
  30
0
  40
2.4999993
  0
CIRCLE
  5
4e4
  8
Layer_1
  62
5
  10
137.64832
  20
132.22046
  30
0
  40
0.24999993
  0
CIRCLE
  5
4e4
  8
Layer_1
  62
5
  10
135.64474
  20
132.10132
  30
0
  40
0.24999993
  0
CIRCLE
  5
4e4
  8
Layer_1
  62
5
  10
133.60257
  20
131.65976
  30
0
  40
0.24999993
  0
CIRCLE
  5
4e4
  8
Layer_1
  62
5
  10
131.64316
  20
131.15753
  30
0
  40
0.24999993
  0
CIRCLE
  5
4e4
  8
Layer_1
  62
5
  10
129.60959
  20
130.47827
  30
0
  40
0.24999993
  0
CIRCLE
  5
4e4
  8
Layer_1
  62
5
  10
127.7494
  20
129.61328
  30
0
  40
0.24999993
  0
CIRCLE
  5
4e4
  8
Layer_1
  62
5
  10
125.65087
  20
128.64697
  30
0
  40
0.24999993
  0
CIRCLE
  5
4e4
  8
Layer_1
  62
5
  10
123.6424
  20
127.25217
  30
0
  40
0.24999993
  0
CIRCLE
  5
4e4
  8
Layer_1
  62
5
  10
121.64832
  20
125.72046
  30
0
  40
0.24999993
  0
CIRCLE
  5
4e4
  8
Layer_1
  62
5
  10
119.69958
  20
123.97559
  30
0
  40
0.24999993
  0
CIRCLE
  5
4e4
  8
Layer_1
  62
5
  10
117.64832
  20
121.47046
  30
0
  40
0.24999993
  0
CIRCLE
  5
4e4
  8
Layer_1
  62
5
  10
115.85467
  20
119.43393
  30
0
  40
0.24999993
  0
CIRCLE
  5
4e4
  8
Layer_1
  62
5
  10
114.8629
  20
117.21759
  30
0
  40
0.24999993
  0
CIRCLE
  5
4e4
  8
Layer_1
  62
5
  10
113.79297
  20
115.00067
  30
0
  40
0.24999993
  0
CIRCLE
  5
4e4
  8
Layer_1
  62
5
  10
112.87667
  20
112.38644
  30
0
  40
0.24999993
  0
CIRCLE
  5
4e4
  8
Layer_1
  62
5
  10
112.22983
  20
110.28467
  30
0
  40
0.24999993
  0
CIRCLE
  5
4e4
  8
Layer_1
  62
5
  10
111.79863
  20
107.9939
  30
0
  40
0.24999993
  0
CIRCLE
  5
4e4
  8
Layer_1
  62
5
  10
111.52912
  20
105.46057
  30
0
  40
0.24999993
  0
CIRCLE
  5
4e4
  8
Layer_1
  62
5
  10
111.65336
  20
102.23199
  30
0
  40
0.24999993
  0
CIRCLE
  5
4e4
  8
Layer_1
  62
5
  10
112.20531
  20
99.361877
  30
0
  40
0.24999993
  0
CIRCLE
  5
4e4
  8
Layer_1
  62
5
  10
112.75725
  20
96.381409
  30
0
  40
0.24999993
  0
CIRCLE
  5
4e4
  8
Layer_1
  62
5
  10
113.75075
  20
93.842468
  30
0
  40
0.24999993
  0
CIRCLE
  5
4e4
  8
Layer_1
  62
5
  10
114.74424
  20
91.745056
  30
0
  40
0.24999993
  0
CIRCLE
  5
4e4
  8
Layer_1
  62
5
  10
115.76445
  20
89.976318
  30
0
  40
0.24999993
  0
CIRCLE
  5
4e4
  8
Layer_1
  62
5
  10
117.03652
  20
87.99707
  30
0
  40
0.24999993
  0
CIRCLE
  5
4e4
  8
Layer_1
  62
5
  10
118.45087
  20
86.151489
  30
0
  40
0.24999993
  0
CIRCLE
  5
4e4
  8
Layer_1
  62
5
  10
120.005
  20
84.571838
  30
0
  40
0.24999993
  0
CIRCLE
  5
4e4
  8
Layer_1
  62
5
  10
121.84731
  20
83.124268
  30
0
  40
0.24999993
  0
CIRCLE
  5
4e4
  8
Layer_1
  62
5
  10
123.68961
  20
81.80835
  30
0
  40
0.24999993
  0
CIRCLE
  5
4e4
  8
Layer_1
  62
5
  10
141.60257
  20
132.28119
  30
0
  40
0.24999993
  0
CIRCLE
  5
4e4
  8
Layer_1
  62
5
  10
143.60611
  20
132.16196
  30
0
  40
0.24999993
  0
CIRCLE
  5
4e4
  8
Layer_1
  62
5
  10
145.64832
  20
131.72046
  30
0
  40
0.24999993
  0
CIRCLE
  5
4e4
  8
Layer_1
  62
5
  10
147.6077
  20
131.21826
  30
0
  40
0.24999993
  0
CIRCLE
  5
4e4
  8
Layer_1
  62
5
  10
149.64127
  20
130.539
  30
0
  40
0.24999993
  0
CIRCLE
  5
4e4
  8
Layer_1
  62
5
  10
151.5015
  20
129.67401
  30
0
  40
0.24999993
  0
CIRCLE
  5
4e4
  8
Layer_1
  62
5
  10
153.60001
  20
128.70764
  30
0
  40
0.24999993
  0
CIRCLE
  5
4e4
  8
Layer_1
  62
5
  10
155.60849
  20
127.31287
  30
0
  40
0.24999993
  0
CIRCLE
  5
4e4
  8
Layer_1
  62
5
  10
159.55133
  20
124.03619
  30
0
  40
0.24999993
  0
CIRCLE
  5
4e4
  8
Layer_1
  62
5
  10
157.60257
  20
125.78119
  30
0
  40
0.24999993
  0
CIRCLE
  5
4e4
  8
Layer_1
  62
5
  10
163.39624
  20
119.49466
  30
0
  40
0.24999993
  0
CIRCLE
  5
4e4
  8
Layer_1
  62
5
  10
161.60257
  20
121.53119
  30
0
  40
0.24999993
  0
CIRCLE
  5
4e4
  8
Layer_1
  62
5
  10
165.45795
  20
115.0614
  30
0
  40
0.24999993
  0
CIRCLE
  5
4e4
  8
Layer_1
  62
5
  10
164.388
  20
117.27832
  30
0
  40
0.24999993
  0
CIRCLE
  5
4e4
  8
Layer_1
  62
5
  10
166.37424
  20
112.44714
  30
0
  40
0.24999993
  0
CIRCLE
  5
4e4
  8
Layer_1
  62
5
  10
167.02109
  20
110.3454
  30
0
  40
0.24999993
  0
CIRCLE
  5
4e4
  8
Layer_1
  62
5
  10
167.45227
  20
108.05463
  30
0
  40
0.24999993
  0
CIRCLE
  5
4e4
  8
Layer_1
  62
5
  10
167.72177
  20
105.52124
  30
0
  40
0.24999993
  0
CIRCLE
  5
4e4
  8
Layer_1
  62
5
  10
167.59753
  20
102.29272
  30
0
  40
0.24999993
  0
CIRCLE
  5
4e4
  8
Layer_1
  62
5
  10
167.04559
  20
99.422607
  30
0
  40
0.24999993
  0
CIRCLE
  5
4e4
  8
Layer_1
  62
5
  10
166.49365
  20
96.442078
  30
0
  40
0.24999993
  0
CIRCLE
  5
4e4
  8
Layer_1
  62
5
  10
165.50015
  20
93.903137
  30
0
  40
0.24999993
  0
CIRCLE
  5
4e4
  8
Layer_1
  62
5
  10
164.50668
  20
91.805786
  30
0
  40
0.24999993
  0
CIRCLE
  5
4e4
  8
Layer_1
  62
5
  10
163.48645
  20
90.036987
  30
0
  40
0.24999993
  0
CIRCLE
  5
4e4
  8
Layer_1
  62
5
  10
162.21439
  20
88.057739
  30
0
  40
0.24999993
  0
CIRCLE
  5
4e4
  8
Layer_1
  62
5
  10
160.80002
  20
86.212158
  30
0
  40
0.24999993
  0
CIRCLE
  5
4e4
  8
Layer_1
  62
5
  10
159.24588
  20
84.632568
  30
0
  40
0.24999993
  0
CIRCLE
  5
4e4
  8
Layer_1
  62
5
  10
157.40356
  20
83.184998
  30
0
  40
0.24999993
  0
CIRCLE
  5
4e4
  8
Layer_1
  62
5
  10
155.56128
  20
81.86908
  30
0
  40
0.24999993
  0
CIRCLE
  5
4e4
  8
Layer_1
  62
5
  10
125.28284
  20
80.110962
  30
0
  40
0.24999993
  0
CIRCLE
  5
4e4
  8
Layer_1
  62
5
  10
125.28284
  20
77.693726
  30
0
  40
0.24999993
  0
CIRCLE
  5
4e4
  8
Layer_1
  62
5
  10
125.28284
  20
74.707703
  30
0
  40
0.24999993
  0
CIRCLE
  5
4e4
  8
Layer_1
  62
5
  10
125.28284
  20
72.290466
  30
0
  40
0.24999993
  0
CIRCLE
  5
4e4
  8
Layer_1
  62
5
  10
125.28284
  20
69.304504
  30
0
  40
0.24999993
  0
CIRCLE
  5
4e4
  8
Layer_1
  62
5
  10
125.28284
  20
67.171631
  30
0
  40
0.24999993
  0
CIRCLE
  5
4e4
  8
Layer_1
  62
5
  10
125.28284
  20
64.256714
  30
0
  40
0.24999993
  0
CIRCLE
  5
4e4
  8
Layer_1
  62
5
  10
125.28284
  20
61.484009
  30
0
  40
0.24999993
  0
CIRCLE
  5
4e4
  8
Layer_1
  62
5
  10
125.28284
  20
58.711304
  30
0
  40
0.24999993
  0
CIRCLE
  5
4e4
  8
Layer_1
  62
5
  10
126.77583
  20
56.862854
  30
0
  40
0.24999993
  0
CIRCLE
  5
4e4
  8
Layer_1
  62
5
  10
128.48212
  20
55.298767
  30
0
  40
0.24999993
  0
CIRCLE
  5
4e4
  8
Layer_1
  62
5
  10
153.82507
  20
79.586548
  30
0
  40
0.24999993
  0
CIRCLE
  5
4e4
  8
Layer_1
  62
5
  10
153.82507
  20
77.169312
  30
0
  40
0.24999993
  0
CIRCLE
  5
4e4
  8
Layer_1
  62
5
  10
153.82507
  20
74.18335
  30
0
  40
0.24999993
  0
CIRCLE
  5
4e4
  8
Layer_1
  62
5
  10
153.82507
  20
71.766113
  30
0
  40
0.24999993
  0
CIRCLE
  5
4e4
  8
Layer_1
  62
5
  10
153.82507
  20
68.78009
  30
0
  40
0.24999993
  0
CIRCLE
  5
4e4
  8
Layer_1
  62
5
  10
153.82507
  20
66.647278
  30
0
  40
0.24999993
  0
CIRCLE
  5
4e4
  8
Layer_1
  62
5
  10
153.82507
  20
63.732361
  30
0
  40
0.24999993
  0
CIRCLE
  5
4e4
  8
Layer_1
  62
5
  10
153.82507
  20
60.959656
  30
0
  40
0.24999993
  0
CIRCLE
  5
4e4
  8
Layer_1
  62
5
  10
153.82507
  20
58.186951
  30
0
  40
0.24999993
  0
CIRCLE
  5
4e4
  8
Layer_1
  62
5
  10
128.58875
  20
74.778809
  30
0
  40
0.24999993
  0
CIRCLE
  5
4e4
  8
Layer_1
  62
5
  10
131.00598
  20
74.778809
  30
0
  40
0.24999993
  0
CIRCLE
  5
4e4
  8
Layer_1
  62
5
  10
133.99197
  20
74.778809
  30
0
  40
0.24999993
  0
CIRCLE
  5
4e4
  8
Layer_1
  62
5
  10
136.40918
  20
74.778809
  30
0
  40
0.24999993
  0
CIRCLE
  5
4e4
  8
Layer_1
  62
5
  10
139.39517
  20
74.778809
  30
0
  40
0.24999993
  0
CIRCLE
  5
4e4
  8
Layer_1
  62
5
  10
141.52802
  20
74.778809
  30
0
  40
0.24999993
  0
CIRCLE
  5
4e4
  8
Layer_1
  62
5
  10
144.44293
  20
74.778809
  30
0
  40
0.24999993
  0
CIRCLE
  5
4e4
  8
Layer_1
  62
5
  10
147.21564
  20
74.778809
  30
0
  40
0.24999993
  0
CIRCLE
  5
4e4
  8
Layer_1
  62
5
  10
149.98834
  20
74.778809
  30
0
  40
0.24999993
  0
CIRCLE
  5
4e4
  8
Layer_1
  62
5
  10
128.37547
  20
69.37561
  30
0
  40
0.24999993
  0
CIRCLE
  5
4e4
  8
Layer_1
  62
5
  10
130.79269
  20
69.37561
  30
0
  40
0.24999993
  0
CIRCLE
  5
4e4
  8
Layer_1
  62
5
  10
133.77869
  20
69.37561
  30
0
  40
0.24999993
  0
CIRCLE
  5
4e4
  8
Layer_1
  62
5
  10
136.19592
  20
69.37561
  30
0
  40
0.24999993
  0
CIRCLE
  5
4e4
  8
Layer_1
  62
5
  10
139.18192
  20
69.37561
  30
0
  40
0.24999993
  0
CIRCLE
  5
4e4
  8
Layer_1
  62
5
  10
141.31476
  20
69.37561
  30
0
  40
0.24999993
  0
CIRCLE
  5
4e4
  8
Layer_1
  62
5
  10
144.22964
  20
69.37561
  30
0
  40
0.24999993
  0
CIRCLE
  5
4e4
  8
Layer_1
  62
5
  10
147.00235
  20
69.37561
  30
0
  40
0.24999993
  0
CIRCLE
  5
4e4
  8
Layer_1
  62
5
  10
149.77505
  20
69.37561
  30
0
  40
0.24999993
  0
CIRCLE
  5
4e4
  8
Layer_1
  62
5
  10
128.30437
  20
64.043457
  30
0
  40
0.24999993
  0
CIRCLE
  5
4e4
  8
Layer_1
  62
5
  10
130.72159
  20
64.043457
  30
0
  40
0.24999993
  0
CIRCLE
  5
4e4
  8
Layer_1
  62
5
  10
133.70758
  20
64.043457
  30
0
  40
0.24999993
  0
CIRCLE
  5
4e4
  8
Layer_1
  62
5
  10
136.12482
  20
64.043457
  30
0
  40
0.24999993
  0
CIRCLE
  5
4e4
  8
Layer_1
  62
5
  10
139.11081
  20
64.043457
  30
0
  40
0.24999993
  0
CIRCLE
  5
4e4
  8
Layer_1
  62
5
  10
141.24365
  20
64.043457
  30
0
  40
0.24999993
  0
CIRCLE
  5
4e4
  8
Layer_1
  62
5
  10
144.15854
  20
64.043457
  30
0
  40
0.24999993
  0
CIRCLE
  5
4e4
  8
Layer_1
  62
5
  10
146.93124
  20
64.043457
  30
0
  40
0.24999993
  0
CIRCLE
  5
4e4
  8
Layer_1
  62
5
  10
149.70395
  20
64.043457
  30
0
  40
0.24999993
  0
CIRCLE
  5
4e4
  8
Layer_1
  62
5
  10
130.49942
  20
54.187927
  30
0
  40
0.24999993
  0
CIRCLE
  5
4e4
  8
Layer_1
  62
5
  10
132.98776
  20
52.854858
  30
0
  40
0.24999993
  0
CIRCLE
  5
4e4
  8
Layer_1
  62
5
  10
135.20947
  20
52.765991
  30
0
  40
0.24999993
  0
CIRCLE
  5
4e4
  8
Layer_1
  62
5
  10
137.25345
  20
52.677124
  30
0
  40
0.24999993
  0
CIRCLE
  5
4e4
  8
Layer_1
  62
5
  10
139.38629
  20
52.854858
  30
0
  40
0.24999993
  0
CIRCLE
  5
4e4
  8
Layer_1
  62
5
  10
141.51913
  20
52.765991
  30
0
  40
0.24999993
  0
CIRCLE
  5
4e4
  8
Layer_1
  62
5
  10
143.65201
  20
53.032593
  30
0
  40
0.24999993
  0
CIRCLE
  5
4e4
  8
Layer_1
  62
5
  10
145.78485
  20
53.12146
  30
0
  40
0.24999993
  0
CIRCLE
  5
4e4
  8
Layer_1
  62
5
  10
148.09543
  20
54.187927
  30
0
  40
0.24999993
  0
CIRCLE
  5
4e4
  8
Layer_1
  62
5
  10
152.18341
  20
56.587402
  30
0
  40
0.24999993
  0
CIRCLE
  5
4e4
  8
Layer_1
  62
5
  10
149.96167
  20
55.520935
  30
0
  40
0.24999993
  0
CIRCLE
  5
4e4
  8
Layer_1
  62
5
  10
121.33522
  20
99.470459
  30
0
  40
0.24999993
  0
CIRCLE
  5
4e4
  8
Layer_1
  62
5
  10
127.94546
  20
99.470459
  30
0
  40
0.24999993
  0
CIRCLE
  5
4e4
  8
Layer_1
  62
5
  10
134.06543
  20
99.470459
  30
0
  40
0.24999993
  0
CIRCLE
  5
4e4
  8
Layer_1
  62
5
  10
138.64832
  20
99.470459
  30
0
  40
0.24999993
  0
CIRCLE
  5
4e4
  8
Layer_1
  62
5
  10
143.13684
  20
99.470459
  30
0
  40
0.24999993
  0
CIRCLE
  5
4e4
  8
Layer_1
  62
5
  10
148.73813
  20
99.470459
  30
0
  40
0.24999993
  0
CIRCLE
  5
4e4
  8
Layer_1
  62
5
  10
153.32101
  20
99.470459
  30
0
  40
0.24999993
  0
CIRCLE
  5
4e4
  8
Layer_1
  62
5
  10
159.52588
  20
99.470459
  30
0
  40
0.24999993
  0
CIRCLE
  5
4e4
  8
Layer_1
  62
5
  10
121.33522
  20
97.366028
  30
0
  40
0.24999993
  0
CIRCLE
  5
4e4
  8
Layer_1
  62
5
  10
127.94546
  20
97.366028
  30
0
  40
0.24999993
  0
CIRCLE
  5
4e4
  8
Layer_1
  62
5
  10
133.80133
  20
97.366028
  30
0
  40
0.24999993
  0
CIRCLE
  5
4e4
  8
Layer_1
  62
5
  10
138.64832
  20
97.366028
  30
0
  40
0.24999993
  0
CIRCLE
  5
4e4
  8
Layer_1
  62
5
  10
143.13684
  20
97.366028
  30
0
  40
0.24999993
  0
CIRCLE
  5
4e4
  8
Layer_1
  62
5
  10
148.73813
  20
97.366028
  30
0
  40
0.24999993
  0
CIRCLE
  5
4e4
  8
Layer_1
  62
5
  10
153.32101
  20
97.366028
  30
0
  40
0.24999993
  0
CIRCLE
  5
4e4
  8
Layer_1
  62
5
  10
157.64832
  20
97.470459
  30
0
  40
0.24999993
  0
CIRCLE
  5
4e4
  8
Layer_1
  62
5
  10
121.33522
  20
95.498901
  30
0
  40
0.24999993
  0
CIRCLE
  5
4e4
  8
Layer_1
  62
5
  10
127.94546
  20
95.583801
  30
0
  40
0.24999993
  0
CIRCLE
  5
4e4
  8
Layer_1
  62
5
  10
133.80133
  20
95.583801
  30
0
  40
0.24999993
  0
CIRCLE
  5
4e4
  8
Layer_1
  62
5
  10
138.64832
  20
95.498901
  30
0
  40
0.24999993
  0
CIRCLE
  5
4e4
  8
Layer_1
  62
5
  10
143.13684
  20
95.498901
  30
0
  40
0.24999993
  0
CIRCLE
  5
4e4
  8
Layer_1
  62
5
  10
148.73813
  20
95.498901
  30
0
  40
0.24999993
  0
CIRCLE
  5
4e4
  8
Layer_1
  62
5
  10
153.32101
  20
95.498901
  30
0
  40
0.24999993
  0
CIRCLE
  5
4e4
  8
Layer_1
  62
5
  10
157.64832
  20
95.470459
  30
0
  40
0.24999993
  0
CIRCLE
  5
4e4
  8
Layer_1
  62
5
  10
121.33522
  20
93.716675
  30
0
  40
0.24999993
  0
CIRCLE
  5
4e4
  8
Layer_1
  62
5
  10
127.94546
  20
93.716675
  30
0
  40
0.24999993
  0
CIRCLE
  5
4e4
  8
Layer_1
  62
5
  10
133.80133
  20
93.716675
  30
0
  40
0.24999993
  0
CIRCLE
  5
4e4
  8
Layer_1
  62
5
  10
138.64832
  20
93.716675
  30
0
  40
0.24999993
  0
CIRCLE
  5
4e4
  8
Layer_1
  62
5
  10
143.13684
  20
93.716675
  30
0
  40
0.24999993
  0
CIRCLE
  5
4e4
  8
Layer_1
  62
5
  10
148.73813
  20
93.716675
  30
0
  40
0.24999993
  0
CIRCLE
  5
4e4
  8
Layer_1
  62
5
  10
153.32101
  20
93.716675
  30
0
  40
0.24999993
  0
CIRCLE
  5
4e4
  8
Layer_1
  62
5
  10
158.64832
  20
93.470459
  30
0
  40
0.24999993
  0
CIRCLE
  5
4e4
  8
Layer_1
  62
5
  10
121.33522
  20
91.849609
  30
0
  40
0.24999993
  0
CIRCLE
  5
4e4
  8
Layer_1
  62
5
  10
127.94546
  20
91.849609
  30
0
  40
0.24999993
  0
CIRCLE
  5
4e4
  8
Layer_1
  62
5
  10
133.80133
  20
91.849609
  30
0
  40
0.24999993
  0
CIRCLE
  5
4e4
  8
Layer_1
  62
5
  10
138.64832
  20
91.849609
  30
0
  40
0.24999993
  0
CIRCLE
  5
4e4
  8
Layer_1
  62
5
  10
143.13684
  20
91.849609
  30
0
  40
0.24999993
  0
CIRCLE
  5
4e4
  8
Layer_1
  62
5
  10
148.73813
  20
91.849609
  30
0
  40
0.24999993
  0
CIRCLE
  5
4e4
  8
Layer_1
  62
5
  10
153.32101
  20
91.849609
  30
0
  40
0.24999993
  0
CIRCLE
  5
4e4
  8
Layer_1
  62
5
  10
159.26178
  20
91.849609
  30
0
  40
0.24999993
  0
CIRCLE
  5
4e4
  8
Layer_1
  62
5
  10
156.03677
  20
95.66864
  30
0
  40
0.24999993
  0
CIRCLE
  5
4e4
  8
Layer_1
  62
5
  10
154.9335
  20
94.480469
  30
0
  40
0.24999993
  0
CIRCLE
  5
4e4
  8
Layer_1
  62
5
  10
144.57959
  20
97.790344
  30
0
  40
0.24999993
  0
CIRCLE
  5
4e4
  8
Layer_1
  62
5
  10
145.34338
  20
96.432495
  30
0
  40
0.24999993
  0
CIRCLE
  5
4e4
  8
Layer_1
  62
5
  10
146.36182
  20
95.244324
  30
0
  40
0.24999993
  0
CIRCLE
  5
4e4
  8
Layer_1
  62
5
  10
147.29535
  20
94.056152
  30
0
  40
0.24999993
  0
CIRCLE
  5
4e4
  8
Layer_1
  62
5
  10
129.47305
  20
95.583801
  30
0
  40
0.24999993
  0
CIRCLE
  5
4e4
  8
Layer_1
  62
5
  10
132.35858
  20
95.583801
  30
0
  40
0.24999993
  0
CIRCLE
  5
4e4
  8
Layer_1
  62
5
  10
130.74609
  20
95.583801
  30
0
  40
0.24999993
  0
CIRCLE
  5
4e4
  8
Layer_1
  62
5
  10
117.50668
  20
99.317993
  30
0
  40
0.24999993
  0
CIRCLE
  5
4e4
  8
Layer_1
  62
5
  10
119.37377
  20
99.487732
  30
0
  40
0.24999993
  0
CIRCLE
  5
4e4
  8
Layer_1
  62
5
  10
123.15356
  20
99.502991
  30
0
  40
0.24999993
  0
CIRCLE
  5
4e4
  8
Layer_1
  62
5
  10
125.14479
  20
99.487732
  30
0
  40
0.24999993
  0
CIRCLE
  5
4e4
  8
Layer_1
  62
5
  10
138.82507
  20
119.2937
  30
0
  40
0.24999993
  0
CIRCLE
  5
4e4
  8
Layer_1
  62
5
  10
138.82507
  20
117.18921
  30
0
  40
0.24999993
  0
CIRCLE
  5
4e4
  8
Layer_1
  62
5
  10
132.26642
  20
115.14938
  30
0
  40
0.24999993
  0
CIRCLE
  5
4e4
  8
Layer_1
  62
5
  10
133.03021
  20
113.79147
  30
0
  40
0.24999993
  0
CIRCLE
  5
4e4
  8
Layer_1
  62
5
  10
144.64832
  20
115.47046
  30
0
  40
0.24999993
  0
CIRCLE
  5
4e4
  8
Layer_1
  62
5
  10
143.88449
  20
114.11258
  30
0
  40
0.24999993
  0
POLYLINE
  5
4e4
  8
Layer_1
  62
5
  66
1
  10
0
  20
0
  30
0
  0
VERTEX
  5
4e4
  8
Layer_1
  10
169.46678
  20
106.8689
  0
VERTEX
  5
4e5
  8
Layer_1
  10
169.41068
  20
107.4837
  0
VERTEX
  5
4e6
  8
Layer_1
  10
169.40018
  20
107.58582
  0
VERTEX
  5
4e7
  8
Layer_1
  10
169.32927
  20
108.20044
  0
VERTEX
  5
4e8
  8
Layer_1
  10
169.31587
  20
108.30457
  0
VERTEX
  5
4e9
  8
Layer_1
  10
169.22968
  20
108.91882
  0
VERTEX
  5
4ea
  8
Layer_1
  10
169.21417
  20
109.0213
  0
VERTEX
  5
4eb
  8
Layer_1
  10
169.11295
  20
109.63464
  0
VERTEX
  5
4ec
  8
Layer_1
  10
169.09454
  20
109.73743
  0
VERTEX
  5
4ed
  8
Layer_1
  10
168.97803
  20
110.34991
  0
VERTEX
  5
4ee
  8
Layer_1
  10
168.95732
  20
110.45221
  0
VERTEX
  5
4ef
  8
Layer_1
  10
168.82555
  20
111.06348
  0
VERTEX
  5
4f0
  8
Layer_1
  10
168.80185
  20
111.16663
  0
VERTEX
  5
4f1
  8
Layer_1
  10
168.65457
  20
111.77625
  0
VERTEX
  5
4f2
  8
Layer_1
  10
168.62888
  20
111.8779
  0
VERTEX
  5
4f3
  8
Layer_1
  10
168.46613
  20
112.48599
  0
VERTEX
  5
4f4
  8
Layer_1
  10
168.43723
  20
112.58875
  0
VERTEX
  5
4f5
  8
Layer_1
  10
168.25876
  20
113.19455
  0
VERTEX
  5
4f6
  8
Layer_1
  10
168.22806
  20
113.29437
  0
VERTEX
  5
4f7
  8
Layer_1
  10
168.03412
  20
113.89813
  0
VERTEX
  5
4f8
  8
Layer_1
  10
168.00002
  20
114
  0
VERTEX
  5
4f9
  8
Layer_1
  10
167.79018
  20
114.60101
  0
VERTEX
  5
4fa
  8
Layer_1
  10
167.75438
  20
114.69958
  0
VERTEX
  5
4fb
  8
Layer_1
  10
167.52885
  20
115.29813
  0
VERTEX
  5
4fc
  8
Layer_1
  10
167.48935
  20
115.39914
  0
VERTEX
  5
4fd
  8
Layer_1
  10
167.24771
  20
115.99429
  0
VERTEX
  5
4fe
  8
Layer_1
  10
167.20731
  20
116.09039
  0
VERTEX
  5
4ff
  8
Layer_1
  10
166.95001
  20
116.68243
  0
VERTEX
  5
500
  8
Layer_1
  10
166.90561
  20
116.78113
  0
VERTEX
  5
501
  8
Layer_1
  10
166.63199
  20
117.36963
  0
VERTEX
  5
502
  8
Layer_1
  10
166.58559
  20
117.46603
  0
VERTEX
  5
503
  8
Layer_1
  10
166.29585
  20
118.05051
  0
VERTEX
  5
504
  8
Layer_1
  10
166.24756
  20
118.14532
  0
VERTEX
  5
505
  8
Layer_1
  10
165.94989
  20
118.71014
  0
VERTEX
  5
506
  8
Layer_1
  10
165.89879
  20
118.80383
  0
VERTEX
  5
507
  8
Layer_1
  10
165.58792
  20
119.35962
  0
VERTEX
  5
508
  8
Layer_1
  10
165.53522
  20
119.45154
  0
VERTEX
  5
509
  8
Layer_1
  10
165.2114
  20
119.99838
  0
VERTEX
  5
50a
  8
Layer_1
  10
165.1564
  20
120.08881
  0
VERTEX
  5
50b
  8
Layer_1
  10
164.81981
  20
120.62637
  0
VERTEX
  5
50c
  8
Layer_1
  10
164.76251
  20
120.71527
  0
VERTEX
  5
50d
  8
Layer_1
  10
164.41336
  20
121.24347
  0
VERTEX
  5
50e
  8
Layer_1
  10
164.35455
  20
121.33008
  0
VERTEX
  5
50f
  8
Layer_1
  10
163.99326
  20
121.84869
  0
VERTEX
  5
510
  8
Layer_1
  10
163.93115
  20
121.93549
  0
VERTEX
  5
511
  8
Layer_1
  10
163.55753
  20
122.44427
  0
VERTEX
  5
512
  8
Layer_1
  10
163.49522
  20
122.52707
  0
VERTEX
  5
513
  8
Layer_1
  10
163.10988
  20
123.02603
  0
VERTEX
  5
514
  8
Layer_1
  10
163.04478
  20
123.10803
  0
VERTEX
  5
515
  8
Layer_1
  10
162.64793
  20
123.59674
  0
VERTEX
  5
516
  8
Layer_1
  10
162.58073
  20
123.67743
  0
VERTEX
  5
517
  8
Layer_1
  10
162.17238
  20
124.15588
  0
VERTEX
  5
518
  8
Layer_1
  10
162.10268
  20
124.23538
  0
VERTEX
  5
519
  8
Layer_1
  10
161.68303
  20
124.70316
  0
VERTEX
  5
51a
  8
Layer_1
  10
161.61212
  20
124.78033
  0
VERTEX
  5
51b
  8
Layer_1
  10
161.18138
  20
125.23743
  0
VERTEX
  5
51c
  8
Layer_1
  10
161.10979
  20
125.31146
  0
VERTEX
  5
51d
  8
Layer_1
  10
160.66859
  20
125.75769
  0
VERTEX
  5
51e
  8
Layer_1
  10
160.59309
  20
125.83215
  0
VERTEX
  5
51f
  8
Layer_1
  10
160.14101
  20
126.26727
  0
VERTEX
  5
520
  8
Layer_1
  10
160.06511
  20
126.33868
  0
VERTEX
  5
521
  8
Layer_1
  10
159.60278
  20
126.76251
  0
VERTEX
  5
522
  8
Layer_1
  10
159.52599
  20
126.8313
  0
VERTEX
  5
523
  8
Layer_1
  10
159.05362
  20
127.24384
  0
VERTEX
  5
524
  8
Layer_1
  10
158.97392
  20
127.31165
  0
VERTEX
  5
525
  8
Layer_1
  10
158.49171
  20
127.71252
  0
VERTEX
  5
526
  8
Layer_1
  10
158.40971
  20
127.77899
  0
VERTEX
  5
527
  8
Layer_1
  10
157.91768
  20
128.16785
  0
VERTEX
  5
528
  8
Layer_1
  10
157.83568
  20
128.23126
  0
VERTEX
  5
529
  8
Layer_1
  10
157.33424
  20
128.60822
  0
VERTEX
  5
52a
  8
Layer_1
  10
157.24954
  20
128.6701
  0
VERTEX
  5
52b
  8
Layer_1
  10
156.73868
  20
129.03491
  0
VERTEX
  5
52c
  8
Layer_1
  10
156.65288
  20
129.09473
  0
VERTEX
  5
52d
  8
Layer_1
  10
156.13324
  20
129.44702
  0
VERTEX
  5
52e
  8
Layer_1
  10
156.04643
  20
129.50443
  0
VERTEX
  5
52f
  8
Layer_1
  10
155.51779
  20
129.84433
  0
VERTEX
  5
530
  8
Layer_1
  10
155.42809
  20
129.90045
  0
VERTEX
  5
531
  8
Layer_1
  10
154.89087
  20
130.22742
  0
VERTEX
  5
532
  8
Layer_1
  10
154.80096
  20
130.2807
  0
VERTEX
  5
533
  8
Layer_1
  10
154.25516
  20
130.59491
  0
VERTEX
  5
534
  8
Layer_1
  10
154.16396
  20
130.646
  0
VERTEX
  5
535
  8
Layer_1
  10
153.6102
  20
130.94702
  0
VERTEX
  5
536
  8
Layer_1
  10
153.51669
  20
130.99634
  0
VERTEX
  5
537
  8
Layer_1
  10
152.955
  20
131.284
  0
VERTEX
  5
538
  8
Layer_1
  10
152.8613
  20
131.33051
  0
VERTEX
  5
539
  8
Layer_1
  10
152.29185
  20
131.6048
  0
VERTEX
  5
53a
  8
Layer_1
  10
152.19606
  20
131.64948
  0
VERTEX
  5
53b
  8
Layer_1
  10
151.61888
  20
131.91016
  0
VERTEX
  5
53c
  8
Layer_1
  10
151.52177
  20
131.95264
  0
VERTEX
  5
53d
  8
Layer_1
  10
150.93748
  20
132.19922
  0
VERTEX
  5
53e
  8
Layer_1
  10
150.83958
  20
132.23923
  0
VERTEX
  5
53f
  8
Layer_1
  10
150.24818
  20
132.47183
  0
VERTEX
  5
540
  8
Layer_1
  10
150.14899
  20
132.50934
  0
VERTEX
  5
541
  8
Layer_1
  10
149.55067
  20
132.72772
  0
VERTEX
  5
542
  8
Layer_1
  10
149.45148
  20
132.76273
  0
VERTEX
  5
543
  8
Layer_1
  10
148.84647
  20
132.96689
  0
VERTEX
  5
544
  8
Layer_1
  10
148.74417
  20
133
  0
VERTEX
  5
545
  8
Layer_1
  10
148.13437
  20
133.1889
  0
VERTEX
  5
546
  8
Layer_1
  10
148.03165
  20
133.21918
  0
VERTEX
  5
547
  8
Layer_1
  10
147.4187
  20
133.3924
  0
VERTEX
  5
548
  8
Layer_1
  10
147.3183
  20
133.41962
  0
VERTEX
  5
549
  8
Layer_1
  10
146.70262
  20
133.57758
  0
VERTEX
  5
54a
  8
Layer_1
  10
146.59908
  20
133.60266
  0
VERTEX
  5
54b
  8
Layer_1
  10
145.98111
  20
133.74493
  0
VERTEX
  5
54c
  8
Layer_1
  10
145.87776
  20
133.76733
  0
VERTEX
  5
54d
  8
Layer_1
  10
145.25728
  20
133.8941
  0
VERTEX
  5
54e
  8
Layer_1
  10
145.15393
  20
133.91394
  0
VERTEX
  5
54f
  8
Layer_1
  10
144.53178
  20
134.02527
  0
VERTEX
  5
550
  8
Layer_1
  10
144.42635
  20
134.04285
  0
VERTEX
  5
551
  8
Layer_1
  10
143.80252
  20
134.13843
  0
VERTEX
  5
552
  8
Layer_1
  10
143.6996
  20
134.15283
  0
VERTEX
  5
553
  8
Layer_1
  10
143.07451
  20
134.23325
  0
VERTEX
  5
554
  8
Layer_1
  10
142.97116
  20
134.24515
  0
VERTEX
  5
555
  8
Layer_1
  10
142.34483
  20
134.31024
  0
VERTEX
  5
556
  8
Layer_1
  10
142.23856
  20
134.32025
  0
VERTEX
  5
557
  8
Layer_1
  10
141.6116
  20
134.36963
  0
VERTEX
  5
558
  8
Layer_1
  10
141.50909
  20
134.37665
  0
VERTEX
  5
559
  8
Layer_1
  10
140.8815
  20
134.41095
  0
VERTEX
  5
55a
  8
Layer_1
  10
140.77608
  20
134.41595
  0
VERTEX
  5
55b
  8
Layer_1
  10
140.14848
  20
134.43484
  0
VERTEX
  5
55c
  8
Layer_1
  10
140.04283
  20
134.43683
  0
VERTEX
  5
55d
  8
Layer_1
  10
139.41524
  20
134.43985
  0
VERTEX
  5
55e
  8
Layer_1
  10
139.31105
  20
134.43906
  0
VERTEX
  5
55f
  8
Layer_1
  10
138.68367
  20
134.42706
  0
VERTEX
  5
560
  8
Layer_1
  10
138.58075
  20
134.42407
  0
VERTEX
  5
561
  8
Layer_1
  10
137.95421
  20
134.39706
  0
VERTEX
  5
562
  8
Layer_1
  10
137.84834
  20
134.39105
  0
VERTEX
  5
563
  8
Layer_1
  10
137.22264
  20
134.34857
  0
VERTEX
  5
564
  8
Layer_1
  10
137.11971
  20
134.34058
  0
VERTEX
  5
565
  8
Layer_1
  10
136.49525
  20
134.28308
  0
VERTEX
  5
566
  8
Layer_1
  10
136.39107
  20
134.27219
  0
VERTEX
  5
567
  8
Layer_1
  10
135.76807
  20
134.19949
  0
VERTEX
  5
568
  8
Layer_1
  10
135.66389
  20
134.18591
  0
VERTEX
  5
569
  8
Layer_1
  10
135.04279
  20
134.09778
  0
VERTEX
  5
56a
  8
Layer_1
  10
134.94006
  20
134.08209
  0
VERTEX
  5
56b
  8
Layer_1
  10
134.32104
  20
133.97894
  0
VERTEX
  5
56c
  8
Layer_1
  10
134.2177
  20
133.96033
  0
VERTEX
  5
56d
  8
Layer_1
  10
133.60078
  20
133.84192
  0
VERTEX
  5
56e
  8
Layer_1
  10
133.49828
  20
133.82104
  0
VERTEX
  5
56f
  8
Layer_1
  10
132.88428
  20
133.68756
  0
VERTEX
  5
570
  8
Layer_1
  10
132.78261
  20
133.66412
  0
VERTEX
  5
571
  8
Layer_1
  10
132.17134
  20
133.51556
  0
VERTEX
  5
572
  8
Layer_1
  10
132.06966
  20
133.4895
  0
VERTEX
  5
573
  8
Layer_1
  10
131.46173
  20
133.32587
  0
VERTEX
  5
574
  8
Layer_1
  10
131.3609
  20
133.29745
  0
VERTEX
  5
575
  8
Layer_1
  10
130.75632
  20
133.1188
  0
VERTEX
  5
576
  8
Layer_1
  10
130.65527
  20
133.08759
  0
VERTEX
  5
577
  8
Layer_1
  10
130.05467
  20
132.89392
  0
VERTEX
  5
578
  8
Layer_1
  10
129.95488
  20
132.86044
  0
VERTEX
  5
579
  8
Layer_1
  10
129.35825
  20
132.6517
  0
VERTEX
  5
57a
  8
Layer_1
  10
129.26015
  20
132.61591
  0
VERTEX
  5
57b
  8
Layer_1
  10
128.66769
  20
132.39227
  0
VERTEX
  5
57c
  8
Layer_1
  10
128.5685
  20
132.35339
  0
VERTEX
  5
57d
  8
Layer_1
  10
127.98087
  20
132.11469
  0
VERTEX
  5
57e
  8
Layer_1
  10
127.88396
  20
132.0741
  0
VERTEX
  5
57f
  8
Layer_1
  10
127.30115
  20
131.82056
  0
VERTEX
  5
580
  8
Layer_1
  10
127.20495
  20
131.77722
  0
VERTEX
  5
581
  8
Layer_1
  10
126.62736
  20
131.50879
  0
VERTEX
  5
582
  8
Layer_1
  10
126.53065
  20
131.4624
  0
VERTEX
  5
583
  8
Layer_1
  10
125.9585
  20
131.17896
  0
VERTEX
  5
584
  8
Layer_1
  10
125.8625
  20
131.12994
  0
VERTEX
  5
585
  8
Layer_1
  10
125.28552
  20
130.82574
  0
VERTEX
  5
586
  8
Layer_1
  10
125.19222
  20
130.77496
  0
VERTEX
  5
587
  8
Layer_1
  10
124.62592
  20
130.45819
  0
VERTEX
  5
588
  8
Layer_1
  10
124.53342
  20
130.40509
  0
VERTEX
  5
589
  8
Layer_1
  10
123.978
  20
130.07599
  0
VERTEX
  5
58a
  8
Layer_1
  10
123.88641
  20
130.0202
  0
VERTEX
  5
58b
  8
Layer_1
  10
123.34208
  20
129.67902
  0
VERTEX
  5
58c
  8
Layer_1
  10
123.25398
  20
129.62231
  0
VERTEX
  5
58d
  8
Layer_1
  10
122.72074
  20
129.26956
  0
VERTEX
  5
58e
  8
Layer_1
  10
122.63224
  20
129.20935
  0
VERTEX
  5
58f
  8
Layer_1
  10
122.11008
  20
128.84497
  0
VERTEX
  5
590
  8
Layer_1
  10
122.02308
  20
128.78259
  0
VERTEX
  5
591
  8
Layer_1
  10
121.51243
  20
128.40686
  0
VERTEX
  5
592
  8
Layer_1
  10
121.42853
  20
128.34357
  0
VERTEX
  5
593
  8
Layer_1
  10
120.92897
  20
127.95673
  0
VERTEX
  5
594
  8
Layer_1
  10
120.84637
  20
127.89133
  0
VERTEX
  5
595
  8
Layer_1
  10
120.35831
  20
127.49377
  0
VERTEX
  5
596
  8
Layer_1
  10
120.27711
  20
127.4259
  0
VERTEX
  5
597
  8
Layer_1
  10
119.80077
  20
127.01794
  0
VERTEX
  5
598
  8
Layer_1
  10
119.72208
  20
126.94891
  0
VERTEX
  5
599
  8
Layer_1
  10
119.25723
  20
126.5307
  0
VERTEX
  5
59a
  8
Layer_1
  10
119.17983
  20
126.45959
  0
VERTEX
  5
59b
  8
Layer_1
  10
118.72672
  20
126.03137
  0
VERTEX
  5
59c
  8
Layer_1
  10
118.65221
  20
125.95917
  0
VERTEX
  5
59d
  8
Layer_1
  10
118.21081
  20
125.52136
  0
VERTEX
  5
59e
  8
Layer_1
  10
118.13701
  20
125.44629
  0
VERTEX
  5
59f
  8
Layer_1
  10
117.70754
  20
124.99884
  0
VERTEX
  5
5a0
  8
Layer_1
  10
117.63744
  20
124.92383
  0
VERTEX
  5
5a1
  8
Layer_1
  10
117.21989
  20
124.46741
  0
VERTEX
  5
5a2
  8
Layer_1
  10
117.1498
  20
124.38892
  0
VERTEX
  5
5a3
  8
Layer_1
  10
116.74438
  20
123.92328
  0
VERTEX
  5
5a4
  8
Layer_1
  10
116.67847
  20
123.84564
  0
VERTEX
  5
5a5
  8
Layer_1
  10
116.28498
  20
123.37143
  0
VERTEX
  5
5a6
  8
Layer_1
  10
116.21928
  20
123.29022
  0
VERTEX
  5
5a7
  8
Layer_1
  10
115.83833
  20
122.80762
  0
VERTEX
  5
5a8
  8
Layer_1
  10
115.77623
  20
122.72702
  0
VERTEX
  5
5a9
  8
Layer_1
  10
115.40742
  20
122.2363
  0
VERTEX
  5
5aa
  8
Layer_1
  10
115.34692
  20
122.15369
  0
VERTEX
  5
5ab
  8
Layer_1
  10
114.99045
  20
121.65491
  0
VERTEX
  5
5ac
  8
Layer_1
  10
114.93145
  20
121.57043
  0
VERTEX
  5
5ad
  8
Layer_1
  10
114.58753
  20
121.06396
  0
VERTEX
  5
5ae
  8
Layer_1
  10
114.53083
  20
120.97815
  0
VERTEX
  5
5af
  8
Layer_1
  10
114.19968
  20
120.46436
  0
VERTEX
  5
5b0
  8
Layer_1
  10
114.14648
  20
120.37985
  0
VERTEX
  5
5b1
  8
Layer_1
  10
113.82767
  20
119.85898
  0
VERTEX
  5
5b2
  8
Layer_1
  10
113.77457
  20
119.76978
  0
VERTEX
  5
5b3
  8
Layer_1
  10
113.46873
  20
119.24176
  0
VERTEX
  5
5b4
  8
Layer_1
  10
113.41972
  20
119.15497
  0
VERTEX
  5
5b5
  8
Layer_1
  10
113.12663
  20
118.62067
  0
VERTEX
  5
5b6
  8
Layer_1
  10
113.07833
  20
118.53006
  0
VERTEX
  5
5b7
  8
Layer_1
  10
112.79822
  20
117.98904
  0
VERTEX
  5
5b8
  8
Layer_1
  10
112.75322
  20
117.89975
  0
VERTEX
  5
5b9
  8
Layer_1
  10
112.48607
  20
117.35294
  0
VERTEX
  5
5ba
  8
Layer_1
  10
112.44297
  20
117.26163
  0
VERTEX
  5
5bb
  8
Layer_1
  10
112.18879
  20
116.70871
  0
VERTEX
  5
5bc
  8
Layer_1
  10
112.14739
  20
116.61581
  0
VERTEX
  5
5bd
  8
Layer_1
  10
111.9066
  20
116.05746
  0
VERTEX
  5
5be
  8
Layer_1
  10
111.8681
  20
115.96527
  0
VERTEX
  5
5bf
  8
Layer_1
  10
111.6405
  20
115.40167
  0
VERTEX
  5
5c0
  8
Layer_1
  10
111.6037
  20
115.30737
  0
VERTEX
  5
5c1
  8
Layer_1
  10
111.38948
  20
114.73853
  0
VERTEX
  5
5c2
  8
Layer_1
  10
111.35518
  20
114.64413
  0
VERTEX
  5
5c3
  8
Layer_1
  10
111.15435
  20
114.07053
  0
VERTEX
  5
5c4
  8
Layer_1
  10
111.12215
  20
113.97473
  0
VERTEX
  5
5c5
  8
Layer_1
  10
110.93491
  20
113.39655
  0
VERTEX
  5
5c6
  8
Layer_1
  10
110.9052
  20
113.30072
  0
VERTEX
  5
5c7
  8
Layer_1
  10
110.73157
  20
112.71832
  0
VERTEX
  5
5c8
  8
Layer_1
  10
110.70396
  20
112.62183
  0
VERTEX
  5
5c9
  8
Layer_1
  10
110.54394
  20
112.03528
  0
VERTEX
  5
5ca
  8
Layer_1
  10
110.51823
  20
111.9364
  0
VERTEX
  5
5cb
  8
Layer_1
  10
110.37222
  20
111.34601
  0
VERTEX
  5
5cc
  8
Layer_1
  10
110.34962
  20
111.25
  0
VERTEX
  5
5cd
  8
Layer_1
  10
110.2172
  20
110.65631
  0
VERTEX
  5
5ce
  8
Layer_1
  10
110.1961
  20
110.55566
  0
VERTEX
  5
5cf
  8
Layer_1
  10
110.0779
  20
109.95862
  0
VERTEX
  5
5d0
  8
Layer_1
  10
110.05969
  20
109.86072
  0
VERTEX
  5
5d1
  8
Layer_1
  10
109.95531
  20
109.26056
  0
VERTEX
  5
5d2
  8
Layer_1
  10
109.93881
  20
109.15863
  0
VERTEX
  5
5d3
  8
Layer_1
  10
109.84882
  20
108.55576
  0
VERTEX
  5
5d4
  8
Layer_1
  10
109.83521
  20
108.45694
  0
VERTEX
  5
5d5
  8
Layer_1
  10
109.75932
  20
107.85178
  0
VERTEX
  5
5d6
  8
Layer_1
  10
109.74782
  20
107.74966
  0
VERTEX
  5
5d7
  8
Layer_1
  10
109.68632
  20
107.14194
  0
VERTEX
  5
5d8
  8
Layer_1
  10
109.67731
  20
107.04193
  0
VERTEX
  5
5d9
  8
Layer_1
  10
109.63001
  20
106.43256
  0
VERTEX
  5
5da
  8
Layer_1
  10
109.62301
  20
106.32959
  0
SEQEND
  0
POLYLINE
  5
5dc
  8
Layer_1
  62
5
  66
1
  10
0
  20
0
  30
0
  0
VERTEX
  5
5dc
  8
Layer_1
  10
109.56323
  20
104.28662
  42
0.0019877714
  0
VERTEX
  5
5dd
  8
Layer_1
  10
109.57513
  20
103.5697
  0
VERTEX
  5
5de
  8
Layer_1
  10
109.57813
  20
103.46655
  0
VERTEX
  5
5df
  8
Layer_1
  10
109.60433
  20
102.85083
  0
VERTEX
  5
5e0
  8
Layer_1
  10
109.61033
  20
102.74817
  0
VERTEX
  5
5e1
  8
Layer_1
  10
109.65133
  20
102.13226
  0
VERTEX
  5
5e2
  8
Layer_1
  10
109.65933
  20
102.02869
  0
VERTEX
  5
5e3
  8
Layer_1
  10
109.71543
  20
101.41241
  0
VERTEX
  5
5e4
  8
Layer_1
  10
109.72633
  20
101.30762
  0
VERTEX
  5
5e5
  8
Layer_1
  10
109.79763
  20
100.69153
  0
VERTEX
  5
5e6
  8
Layer_1
  10
109.81063
  20
100.59045
  0
VERTEX
  5
5e7
  8
Layer_1
  10
109.89683
  20
99.974792
  0
VERTEX
  5
5e8
  8
Layer_1
  10
109.91273
  20
99.869995
  0
VERTEX
  5
5e9
  8
Layer_1
  10
110.0144
  20
99.254944
  0
VERTEX
  5
5ea
  8
Layer_1
  10
110.033
  20
99.151001
  0
VERTEX
  5
5eb
  8
Layer_1
  10
110.15014
  20
98.536804
  0
VERTEX
  5
5ec
  8
Layer_1
  10
110.17084
  20
98.43512
  0
VERTEX
  5
5ed
  8
Layer_1
  10
110.30327
  20
97.82196
  0
VERTEX
  5
5ee
  8
Layer_1
  10
110.32647
  20
97.719666
  0
VERTEX
  5
5ef
  8
Layer_1
  10
110.47437
  20
97.107788
  0
VERTEX
  5
5f0
  8
Layer_1
  10
110.50077
  20
97.004639
  0
VERTEX
  5
5f1
  8
Layer_1
  10
110.66436
  20
96.394592
  0
VERTEX
  5
5f2
  8
Layer_1
  10
110.69306
  20
96.292969
  0
VERTEX
  5
5f3
  8
Layer_1
  10
110.87235
  20
95.684814
  0
VERTEX
  5
5f4
  8
Layer_1
  10
110.90376
  20
95.582886
  0
VERTEX
  5
5f5
  8
Layer_1
  10
111.09894
  20
94.976868
  0
VERTEX
  5
5f6
  8
Layer_1
  10
111.13224
  20
94.877502
  0
VERTEX
  5
5f7
  8
Layer_1
  10
111.34311
  20
94.273743
  0
VERTEX
  5
5f8
  8
Layer_1
  10
111.37991
  20
94.172729
  0
VERTEX
  5
5f9
  8
Layer_1
  10
111.6069
  20
93.571655
  0
VERTEX
  5
5fa
  8
Layer_1
  10
111.64559
  20
93.472961
  0
VERTEX
  5
5fb
  8
Layer_1
  10
111.88847
  20
92.875061
  0
VERTEX
  5
5fc
  8
Layer_1
  10
111.92987
  20
92.776306
  0
VERTEX
  5
5fd
  8
Layer_1
  10
112.18907
  20
92.181335
  0
VERTEX
  5
5fe
  8
Layer_1
  10
112.23277
  20
92.084473
  0
VERTEX
  5
5ff
  8
Layer_1
  10
112.50807
  20
91.493103
  0
VERTEX
  5
600
  8
Layer_1
  10
112.57147
  20
91.362549
  0
VERTEX
  5
601
  8
Layer_1
  10
113.03902
  20
90.44104
  0
VERTEX
  5
602
  8
Layer_1
  10
113.11972
  20
90.289551
  0
VERTEX
  5
603
  8
Layer_1
  10
113.62242
  20
89.390015
  0
VERTEX
  5
604
  8
Layer_1
  10
113.70882
  20
89.242554
  0
VERTEX
  5
605
  8
Layer_1
  10
114.24562
  20
88.366028
  0
VERTEX
  5
606
  8
Layer_1
  10
114.33722
  20
88.2229
  0
VERTEX
  5
607
  8
Layer_1
  10
114.90728
  20
87.369995
  0
VERTEX
  5
608
  8
Layer_1
  10
115.00518
  20
87.229858
  0
VERTEX
  5
609
  8
Layer_1
  10
115.60789
  20
86.401611
  0
VERTEX
  5
60a
  8
Layer_1
  10
115.71017
  20
86.266724
  0
VERTEX
  5
60b
  8
Layer_1
  10
116.34447
  20
85.463806
  0
VERTEX
  5
60c
  8
Layer_1
  10
116.45303
  20
85.331787
  0
VERTEX
  5
60d
  8
Layer_1
  10
117.11829
  20
84.555481
  0
VERTEX
  5
60e
  8
Layer_1
  10
117.23062
  20
84.429565
  0
VERTEX
  5
60f
  8
Layer_1
  10
117.92558
  20
83.68042
  0
VERTEX
  5
610
  8
Layer_1
  10
118.04399
  20
83.557617
  0
VERTEX
  5
611
  8
Layer_1
  10
118.76843
  20
82.836487
  0
VERTEX
  5
612
  8
Layer_1
  10
118.89082
  20
82.719543
  0
VERTEX
  5
613
  8
Layer_1
  10
119.6433
  20
82.027527
  0
VERTEX
  5
614
  8
Layer_1
  10
119.77049
  20
81.914978
  0
VERTEX
  5
615
  8
Layer_1
  10
120.55038
  20
81.252869
  0
VERTEX
  5
616
  8
Layer_1
  10
120.6826
  20
81.144897
  0
VERTEX
  5
617
  8
Layer_1
  10
121.48927
  20
80.51355
  0
VERTEX
  5
618
  8
Layer_1
  10
121.62546
  20
80.411499
  0
VERTEX
  5
619
  8
Layer_1
  10
122.45786
  20
79.811707
  0
VERTEX
  5
61a
  8
Layer_1
  10
122.5976
  20
79.715271
  0
VERTEX
  5
61b
  8
Layer_1
  10
123.32079
  20
79.236633
  0
VERTEX
  5
61c
  8
Layer_1
  10
123.32079
  20
75.71875
  0
VERTEX
  5
61d
  8
Layer_1
  10
123.32378
  20
75.5495
  0
VERTEX
  5
61e
  8
Layer_1
  10
123.33379
  20
75.380493
  0
VERTEX
  5
61f
  8
Layer_1
  10
123.35049
  20
75.211853
  0
VERTEX
  5
620
  8
Layer_1
  10
123.3507
  20
75.210266
  0
VERTEX
  5
621
  8
Layer_1
  10
123.3273
  20
75.071533
  0
VERTEX
  5
622
  8
Layer_1
  10
123.3057
  20
74.903564
  0
VERTEX
  5
623
  8
Layer_1
  10
123.2906
  20
74.734924
  0
VERTEX
  5
624
  8
Layer_1
  10
123.2826
  20
74.565735
  0
VERTEX
  5
625
  8
Layer_1
  10
123.2806
  20
74.440857
  0
VERTEX
  5
626
  8
Layer_1
  10
123.2806
  20
70.156433
  0
VERTEX
  5
627
  8
Layer_1
  10
123.2836
  20
69.987183
  0
VERTEX
  5
628
  8
Layer_1
  10
123.2936
  20
69.818176
  0
VERTEX
  5
629
  8
Layer_1
  10
123.3103
  20
69.649536
  0
VERTEX
  5
62a
  8
Layer_1
  10
123.32851
  20
69.518616
  0
VERTEX
  5
62b
  8
Layer_1
  10
123.32651
  20
69.509216
  0
VERTEX
  5
62c
  8
Layer_1
  10
123.30491
  20
69.341187
  0
VERTEX
  5
62d
  8
Layer_1
  10
123.28981
  20
69.172607
  0
VERTEX
  5
62e
  8
Layer_1
  10
123.28181
  20
69.003357
  0
VERTEX
  5
62f
  8
Layer_1
  10
123.27981
  20
68.878479
  0
VERTEX
  5
630
  8
Layer_1
  10
123.27981
  20
64.594055
  0
VERTEX
  5
631
  8
Layer_1
  10
123.28281
  20
64.424866
  0
VERTEX
  5
632
  8
Layer_1
  10
123.29281
  20
64.255798
  0
VERTEX
  5
633
  8
Layer_1
  10
123.30951
  20
64.087219
  0
VERTEX
  5
634
  8
Layer_1
  10
123.32431
  20
63.980103
  0
VERTEX
  5
635
  8
Layer_1
  10
123.31831
  20
63.946838
  0
VERTEX
  5
636
  8
Layer_1
  10
123.29681
  20
63.77887
  0
VERTEX
  5
637
  8
Layer_1
  10
123.28172
  20
63.610229
  0
VERTEX
  5
638
  8
Layer_1
  10
123.27371
  20
63.440979
  0
VERTEX
  5
639
  8
Layer_1
  10
123.27171
  20
63.316101
  0
VERTEX
  5
63a
  8
Layer_1
  10
123.27171
  20
59.031738
  0
VERTEX
  5
63b
  8
Layer_1
  10
123.27471
  20
58.862488
  0
VERTEX
  5
63c
  8
Layer_1
  10
123.28471
  20
58.693481
  0
VERTEX
  5
63d
  8
Layer_1
  10
123.30141
  20
58.524841
  0
VERTEX
  5
63e
  8
Layer_1
  10
123.32462
  20
58.357056
  0
VERTEX
  5
63f
  8
Layer_1
  10
123.35471
  20
58.190552
  0
VERTEX
  5
640
  8
Layer_1
  10
123.39111
  20
58.025085
  0
VERTEX
  5
641
  8
Layer_1
  10
123.43421
  20
57.861267
  0
VERTEX
  5
642
  8
Layer_1
  10
123.48381
  20
57.699341
  0
VERTEX
  5
643
  8
Layer_1
  10
123.53941
  20
57.53949
  0
VERTEX
  5
644
  8
Layer_1
  10
123.60152
  20
57.382019
  0
VERTEX
  5
645
  8
Layer_1
  10
123.66991
  20
57.22699
  0
VERTEX
  5
646
  8
Layer_1
  10
123.74422
  20
57.07489
  0
VERTEX
  5
647
  8
Layer_1
  10
123.82452
  20
56.92572
  0
VERTEX
  5
648
  8
Layer_1
  10
123.91071
  20
56.779907
  0
VERTEX
  5
649
  8
Layer_1
  10
124.00251
  20
56.637695
  0
VERTEX
  5
64a
  8
Layer_1
  10
124.09981
  20
56.499207
  0
VERTEX
  5
64b
  8
Layer_1
  10
124.20274
  20
56.364441
  0
VERTEX
  5
64c
  8
Layer_1
  10
124.31068
  20
56.234131
  0
VERTEX
  5
64d
  8
Layer_1
  10
124.42386
  20
56.107971
  0
VERTEX
  5
64e
  8
Layer_1
  10
124.54185
  20
55.986633
  0
VERTEX
  5
64f
  8
Layer_1
  10
124.66444
  20
55.869934
  0
VERTEX
  5
650
  8
Layer_1
  10
124.79163
  20
55.757996
  0
VERTEX
  5
651
  8
Layer_1
  10
124.9232
  20
55.651306
  0
VERTEX
  5
652
  8
Layer_1
  10
125.05877
  20
55.550049
  0
VERTEX
  5
653
  8
Layer_1
  10
125.19851
  20
55.454041
  0
VERTEX
  5
654
  8
Layer_1
  10
125.3416
  20
55.363647
  0
VERTEX
  5
655
  8
Layer_1
  10
125.48825
  20
55.279114
  0
VERTEX
  5
656
  8
Layer_1
  10
125.63824
  20
55.200256
  0
VERTEX
  5
657
  8
Layer_1
  10
125.79115
  20
55.127502
  0
VERTEX
  5
658
  8
Layer_1
  10
125.83445
  20
55.108826
  0
VERTEX
  5
659
  8
Layer_1
  10
131.2215
  20
51.261047
  0
VERTEX
  5
65a
  8
Layer_1
  10
131.36124
  20
51.165283
  0
VERTEX
  5
65b
  8
Layer_1
  10
131.50476
  20
51.075317
  0
VERTEX
  5
65c
  8
Layer_1
  10
131.65161
  20
50.990784
  0
VERTEX
  5
65d
  8
Layer_1
  10
131.80161
  20
50.912354
  0
VERTEX
  5
65e
  8
Layer_1
  10
131.95453
  20
50.839966
  0
VERTEX
  5
65f
  8
Layer_1
  10
132.11035
  20
50.773438
  0
VERTEX
  5
660
  8
Layer_1
  10
132.26874
  20
50.713379
  0
VERTEX
  5
661
  8
Layer_1
  10
132.4292
  20
50.659424
  0
VERTEX
  5
662
  8
Layer_1
  10
132.59174
  20
50.611938
  0
VERTEX
  5
663
  8
Layer_1
  10
132.75616
  20
50.570923
  0
VERTEX
  5
664
  8
Layer_1
  10
132.92188
  20
50.536438
  0
VERTEX
  5
665
  8
Layer_1
  10
133.08902
  20
50.508606
  0
VERTEX
  5
666
  8
Layer_1
  10
133.25699
  20
50.487244
  0
VERTEX
  5
667
  8
Layer_1
  10
133.4256
  20
50.472595
  0
VERTEX
  5
668
  8
Layer_1
  10
133.59485
  20
50.464691
  0
VERTEX
  5
669
  8
Layer_1
  10
133.71176
  20
50.463104
  0
VERTEX
  5
66a
  8
Layer_1
  10
145.70801
  20
50.463104
  0
VERTEX
  5
66b
  8
Layer_1
  10
145.87726
  20
50.466492
  0
VERTEX
  5
66c
  8
Layer_1
  10
146.0463
  20
50.476501
  0
VERTEX
  5
66d
  8
Layer_1
  10
146.2149
  20
50.493225
  0
VERTEX
  5
66e
  8
Layer_1
  10
146.38269
  20
50.516479
  0
VERTEX
  5
66f
  8
Layer_1
  10
146.54919
  20
50.54657
  0
VERTEX
  5
670
  8
Layer_1
  10
146.71466
  20
50.582947
  0
VERTEX
  5
671
  8
Layer_1
  10
146.87848
  20
50.626099
  0
VERTEX
  5
672
  8
Layer_1
  10
147.04041
  20
50.675659
  0
VERTEX
  5
673
  8
Layer_1
  10
147.20023
  20
50.731323
  0
VERTEX
  5
674
  8
Layer_1
  10
147.35776
  20
50.793457
  0
VERTEX
  5
675
  8
Layer_1
  10
147.51276
  20
50.861816
  0
VERTEX
  5
676
  8
Layer_1
  10
147.66486
  20
50.936096
  0
VERTEX
  5
677
  8
Layer_1
  10
147.814
  20
51.016418
  0
VERTEX
  5
678
  8
Layer_1
  10
147.95981
  20
51.1026
  0
VERTEX
  5
679
  8
Layer_1
  10
148.10208
  20
51.194458
  0
VERTEX
  5
67a
  8
Layer_1
  10
148.19827
  20
51.261169
  0
VERTEX
  5
67b
  8
Layer_1
  10
154.19638
  20
55.545593
  0
VERTEX
  5
67c
  8
Layer_1
  10
154.33215
  20
55.646606
  0
VERTEX
  5
67d
  8
Layer_1
  10
154.46393
  20
55.753113
  0
VERTEX
  5
67e
  8
Layer_1
  10
154.59134
  20
55.864563
  0
VERTEX
  5
67f
  8
Layer_1
  10
154.71414
  20
55.98114
  0
VERTEX
  5
680
  8
Layer_1
  10
154.83234
  20
56.102478
  0
VERTEX
  5
681
  8
Layer_1
  10
154.94571
  20
56.22821
  0
VERTEX
  5
682
  8
Layer_1
  10
155.05408
  20
56.358521
  0
VERTEX
  5
683
  8
Layer_1
  10
155.15701
  20
56.492798
  0
VERTEX
  5
684
  8
Layer_1
  10
155.25473
  20
56.631104
  0
VERTEX
  5
685
  8
Layer_1
  10
155.34683
  20
56.773376
  0
VERTEX
  5
686
  8
Layer_1
  10
155.43323
  20
56.918945
  0
VERTEX
  5
687
  8
Layer_1
  10
155.51373
  20
57.067932
  0
VERTEX
  5
688
  8
Layer_1
  10
155.58844
  20
57.219971
  0
VERTEX
  5
689
  8
Layer_1
  10
155.65704
  20
57.374817
  0
VERTEX
  5
68a
  8
Layer_1
  10
155.71942
  20
57.532104
  0
VERTEX
  5
68b
  8
Layer_1
  10
155.77573
  20
57.691956
  0
VERTEX
  5
68c
  8
Layer_1
  10
155.82553
  20
57.853882
  0
VERTEX
  5
68d
  8
Layer_1
  10
155.86884
  20
58.017456
  0
VERTEX
  5
68e
  8
Layer_1
  10
155.90564
  20
58.182739
  0
VERTEX
  5
68f
  8
Layer_1
  10
155.93594
  20
58.349426
  0
VERTEX
  5
690
  8
Layer_1
  10
155.95956
  20
58.517029
  0
VERTEX
  5
691
  8
Layer_1
  10
155.97656
  20
58.685608
  0
VERTEX
  5
692
  8
Layer_1
  10
155.98676
  20
58.854675
  0
VERTEX
  5
693
  8
Layer_1
  10
155.99075
  20
59.023926
  0
VERTEX
  5
694
  8
Layer_1
  10
155.98773
  20
59.193359
  0
VERTEX
  5
695
  8
Layer_1
  10
155.97775
  20
59.362366
  0
VERTEX
  5
696
  8
Layer_1
  10
155.96146
  20
59.530762
  0
VERTEX
  5
697
  8
Layer_1
  10
155.93826
  20
59.698547
  0
VERTEX
  5
698
  8
Layer_1
  10
155.90875
  20
59.865295
  0
VERTEX
  5
699
  8
Layer_1
  10
155.87256
  20
60.030762
  0
VERTEX
  5
69a
  8
Layer_1
  10
155.83237
  20
60.184143
  0
VERTEX
  5
69b
  8
Layer_1
  10
155.83237
  20
63.316223
  0
VERTEX
  5
69c
  8
Layer_1
  10
155.82935
  20
63.485474
  0
VERTEX
  5
69d
  8
Layer_1
  10
155.81937
  20
63.65448
  0
VERTEX
  5
69e
  8
Layer_1
  10
155.80267
  20
63.82312
  0
VERTEX
  5
69f
  8
Layer_1
  10
155.78787
  20
63.930237
  0
VERTEX
  5
6a0
  8
Layer_1
  10
155.79385
  20
63.963486
  0
VERTEX
  5
6a1
  8
Layer_1
  10
155.81537
  20
64.131454
  0
VERTEX
  5
6a2
  8
Layer_1
  10
155.83047
  20
64.300095
  0
VERTEX
  5
6a3
  8
Layer_1
  10
155.83847
  20
64.469284
  0
VERTEX
  5
6a4
  8
Layer_1
  10
155.84045
  20
64.594162
  0
VERTEX
  5
6a5
  8
Layer_1
  10
155.84045
  20
68.878601
  0
VERTEX
  5
6a6
  8
Layer_1
  10
155.83746
  20
69.047791
  0
VERTEX
  5
6a7
  8
Layer_1
  10
155.82745
  20
69.216858
  0
VERTEX
  5
6a8
  8
Layer_1
  10
155.81076
  20
69.385437
  0
VERTEX
  5
6a9
  8
Layer_1
  10
155.79257
  20
69.516418
  0
VERTEX
  5
6aa
  8
Layer_1
  10
155.79456
  20
69.525818
  0
VERTEX
  5
6ab
  8
Layer_1
  10
155.81607
  20
69.693848
  0
VERTEX
  5
6ac
  8
Layer_1
  10
155.83118
  20
69.862427
  0
VERTEX
  5
6ad
  8
Layer_1
  10
155.83917
  20
70.031677
  0
VERTEX
  5
6ae
  8
Layer_1
  10
155.84116
  20
70.156555
  0
VERTEX
  5
6af
  8
Layer_1
  10
155.84116
  20
74.440948
  0
VERTEX
  5
6b0
  8
Layer_1
  10
155.83817
  20
74.610138
  0
VERTEX
  5
6b1
  8
Layer_1
  10
155.82816
  20
74.779205
  0
VERTEX
  5
6b2
  8
Layer_1
  10
155.81146
  20
74.947784
  0
VERTEX
  5
6b3
  8
Layer_1
  10
155.81125
  20
74.949493
  0
VERTEX
  5
6b4
  8
Layer_1
  10
155.83466
  20
75.088165
  0
VERTEX
  5
6b5
  8
Layer_1
  10
155.85617
  20
75.256134
  0
VERTEX
  5
6b6
  8
Layer_1
  10
155.87128
  20
75.424774
  0
VERTEX
  5
6b7
  8
Layer_1
  10
155.87927
  20
75.594025
  0
VERTEX
  5
6b8
  8
Layer_1
  10
155.88126
  20
75.718903
  0
VERTEX
  5
6b9
  8
Layer_1
  10
155.88126
  20
79.277374
  0
VERTEX
  5
6ba
  8
Layer_1
  10
156.3894
  20
79.613129
  0
VERTEX
  5
6bb
  8
Layer_1
  10
156.47702
  20
79.672516
  0
VERTEX
  5
6bc
  8
Layer_1
  10
157.00168
  20
80.038239
  0
VERTEX
  5
6bd
  8
Layer_1
  10
157.0885
  20
80.100372
  0
VERTEX
  5
6be
  8
Layer_1
  10
157.60165
  20
80.477325
  0
VERTEX
  5
6bf
  8
Layer_1
  10
157.68637
  20
80.541107
  0
VERTEX
  5
6c0
  8
Layer_1
  10
158.18781
  20
80.928986
  0
VERTEX
  5
6c1
  8
Layer_1
  10
158.2709
  20
80.995087
  0
VERTEX
  5
6c2
  8
Layer_1
  10
158.76083
  20
81.393829
  0
VERTEX
  5
6c3
  8
Layer_1
  10
158.84116
  20
81.460724
  0
VERTEX
  5
6c4
  8
Layer_1
  10
159.31958
  20
81.869965
  0
VERTEX
  5
6c5
  8
Layer_1
  10
159.39926
  20
81.93985
  0
VERTEX
  5
6c6
  8
Layer_1
  10
159.86557
  20
82.359039
  0
VERTEX
  5
6c7
  8
Layer_1
  10
159.94278
  20
82.430206
  0
VERTEX
  5
6c8
  8
Layer_1
  10
160.39755
  20
82.85965
  0
VERTEX
  5
6c9
  8
Layer_1
  10
160.47266
  20
82.932281
  0
VERTEX
  5
6ca
  8
Layer_1
  10
160.91531
  20
83.371124
  0
VERTEX
  5
6cb
  8
Layer_1
  10
160.98959
  20
83.446686
  0
VERTEX
  5
6cc
  8
Layer_1
  10
161.42014
  20
83.895172
  0
VERTEX
  5
6cd
  8
Layer_1
  10
161.49081
  20
83.970734
  0
VERTEX
  5
6ce
  8
Layer_1
  10
161.90942
  20
84.428436
  0
VERTEX
  5
6cf
  8
Layer_1
  10
161.97803
  20
84.505219
  0
VERTEX
  5
6d0
  8
Layer_1
  10
162.38449
  20
84.97171
  0
VERTEX
  5
6d1
  8
Layer_1
  10
162.45248
  20
85.051666
  0
VERTEX
  5
6d2
  8
Layer_1
  10
162.84644
  20
85.526703
  0
VERTEX
  5
6d3
  8
Layer_1
  10
162.91104
  20
85.606842
  0
VERTEX
  5
6d4
  8
Layer_1
  10
163.29282
  20
86.090485
  0
VERTEX
  5
6d5
  8
Layer_1
  10
163.35562
  20
86.171906
  0
VERTEX
  5
6d6
  8
Layer_1
  10
163.72507
  20
86.663727
  0
VERTEX
  5
6d7
  8
Layer_1
  10
163.78638
  20
86.747406
  0
VERTEX
  5
6d8
  8
Layer_1
  10
164.14307
  20
87.246979
  0
VERTEX
  5
6d9
  8
Layer_1
  10
164.20105
  20
87.330231
  0
VERTEX
  5
6da
  8
Layer_1
  10
164.54538
  20
87.837555
  0
VERTEX
  5
6db
  8
Layer_1
  10
164.60208
  20
87.923309
  0
VERTEX
  5
6dc
  8
Layer_1
  10
164.93365
  20
88.437897
  0
VERTEX
  5
6dd
  8
Layer_1
  10
164.98755
  20
88.523712
  0
VERTEX
  5
6de
  8
Layer_1
  10
165.3064
  20
89.045197
  0
VERTEX
  5
6df
  8
Layer_1
  10
165.35931
  20
89.134308
  0
VERTEX
  5
6e0
  8
Layer_1
  10
165.66516
  20
89.662994
  0
VERTEX
  5
6e1
  8
Layer_1
  10
165.71436
  20
89.750397
  0
VERTEX
  5
6e2
  8
Layer_1
  10
166.00745
  20
90.285553
  0
VERTEX
  5
6e3
  8
Layer_1
  10
166.05515
  20
90.374908
  0
VERTEX
  5
6e4
  8
Layer_1
  10
166.33527
  20
90.91629
  0
VERTEX
  5
6e5
  8
Layer_1
  10
166.38086
  20
91.007294
  0
VERTEX
  5
6e6
  8
Layer_1
  10
166.64777
  20
91.554718
  0
VERTEX
  5
6e7
  8
Layer_1
  10
166.69107
  20
91.645966
  0
VERTEX
  5
6e8
  8
Layer_1
  10
166.94482
  20
92.199066
  0
VERTEX
  5
6e9
  8
Layer_1
  10
166.98523
  20
92.29007
  0
VERTEX
  5
6ea
  8
Layer_1
  10
167.22601
  20
92.848846
  0
VERTEX
  5
6eb
  8
Layer_1
  10
167.26572
  20
92.944
  0
VERTEX
  5
6ec
  8
Layer_1
  10
167.49292
  20
93.508209
  0
VERTEX
  5
6ed
  8
Layer_1
  10
167.52911
  20
93.601776
  0
VERTEX
  5
6ee
  8
Layer_1
  10
167.74292
  20
94.170807
  0
VERTEX
  5
6ef
  8
Layer_1
  10
167.77722
  20
94.264923
  0
VERTEX
  5
6f0
  8
Layer_1
  10
167.97763
  20
94.838776
  0
VERTEX
  5
6f1
  8
Layer_1
  10
168.00922
  20
94.932892
  0
VERTEX
  5
6f2
  8
Layer_1
  10
168.19623
  20
95.511139
  0
VERTEX
  5
6f3
  8
Layer_1
  10
168.22653
  20
95.608795
  0
VERTEX
  5
6f4
  8
Layer_1
  10
168.39975
  20
96.191437
  0
VERTEX
  5
6f5
  8
Layer_1
  10
168.42737
  20
96.288239
  0
VERTEX
  5
6f6
  8
Layer_1
  10
168.58676
  20
96.874664
  0
VERTEX
  5
6f7
  8
Layer_1
  10
168.61206
  20
96.972748
  0
VERTEX
  5
6f8
  8
Layer_1
  10
168.75766
  20
97.563141
  0
VERTEX
  5
6f9
  8
Layer_1
  10
168.78046
  20
97.660187
  0
VERTEX
  5
6fa
  8
Layer_1
  10
168.91226
  20
98.253693
  0
VERTEX
  5
6fb
  8
Layer_1
  10
168.93274
  20
98.351593
  0
VERTEX
  5
6fc
  8
Layer_1
  10
169.05075
  20
98.948395
  0
VERTEX
  5
6fd
  8
Layer_1
  10
169.06934
  20
99.049286
  0
VERTEX
  5
6fe
  8
Layer_1
  10
169.1731
  20
99.649261
  0
VERTEX
  5
6ff
  8
Layer_1
  10
169.189
  20
99.747955
  0
VERTEX
  5
700
  8
Layer_1
  10
169.27872
  20
100.35025
  0
VERTEX
  5
701
  8
Layer_1
  10
169.29272
  20
100.45236
  0
VERTEX
  5
702
  8
Layer_1
  10
169.36801
  20
101.05734
  0
VERTEX
  5
703
  8
Layer_1
  10
169.37912
  20
101.15607
  0
VERTEX
  5
704
  8
Layer_1
  10
169.4404
  20
101.76294
  0
VERTEX
  5
705
  8
Layer_1
  10
169.4494
  20
101.86481
  0
VERTEX
  5
706
  8
Layer_1
  10
169.49631
  20
102.47382
  0
VERTEX
  5
707
  8
Layer_1
  10
169.50232
  20
102.57526
  0
VERTEX
  5
708
  8
Layer_1
  10
169.53482
  20
103.18591
  0
VERTEX
  5
709
  8
Layer_1
  10
169.53882
  20
103.28864
  0
VERTEX
  5
70a
  8
Layer_1
  10
169.55661
  20
103.90033
  0
VERTEX
  5
70b
  8
Layer_1
  10
169.55862
  20
104.00281
  0
VERTEX
  5
70c
  8
Layer_1
  10
169.56161
  20
104.61597
  0
SEQEND
  0
POLYLINE
  5
70e
  8
Layer_0
  62
3
  66
1
  10
0
  20
0
  30
0
  0
VERTEX
  5
70e
  8
Layer_0
  10
274.88605
  20
164.10059
  42
0.055100358
  0
VERTEX
  5
70f
  8
Layer_0
  10
275.44513
  20
164.18311
  0
VERTEX
  5
710
  8
Layer_0
  10
275.44513
  20
165.1582
  0
VERTEX
  5
711
  8
Layer_0
  10
275.10602
  20
165.0957
  42
-0.091156762
  0
VERTEX
  5
712
  8
Layer_0
  10
274.62897
  20
165.0874
  42
-0.28347939
  0
VERTEX
  5
713
  8
Layer_0
  10
274.07599
  20
165.64551
  42
-0.071163848
  0
VERTEX
  5
714
  8
Layer_0
  10
274.02008
  20
166.07056
  0
VERTEX
  5
715
  8
Layer_0
  10
274.02008
  20
173.5332
  0
VERTEX
  5
716
  8
Layer_0
  10
272.97003
  20
173.5332
  0
VERTEX
  5
717
  8
Layer_0
  10
272.97003
  20
166.02051
  42
0.1814764
  0
VERTEX
  5
718
  8
Layer_0
  10
273.41071
  20
164.61279
  42
0.22241233
  0
VERTEX
  5
719
  8
Layer_0
  10
274.69513
  20
164.0957
  0
VERTEX
  5
71a
  8
Layer_0
  10
274.88605
  20
164.10059
  0
SEQEND
  0
POLYLINE
  5
71c
  8
Layer_0
  62
3
  66
1
  10
0
  20
0
  30
0
  0
VERTEX
  5
71c
  8
Layer_0
  10
119.27474
  20
163.97852
  0
VERTEX
  5
71d
  8
Layer_0
  10
119.68856
  20
164.03931
  42
0.2572335
  0
VERTEX
  5
71e
  8
Layer_0
  10
122.30379
  20
166.23389
  42
0.18770899
  0
VERTEX
  5
71f
  8
Layer_0
  10
122.30379
  20
170.79248
  42
0.28420402
  0
VERTEX
  5
720
  8
Layer_0
  10
119.27474
  20
173.01245
  42
0.15614642
  0
VERTEX
  5
721
  8
Layer_0
  10
116.88558
  20
172.53906
  42
0.18583136
  0
VERTEX
  5
722
  8
Layer_0
  10
115.22543
  20
170.39648
  42
0.16736532
  0
VERTEX
  5
723
  8
Layer_0
  10
115.37533
  20
166.23389
  42
0.28854611
  0
VERTEX
  5
724
  8
Layer_0
  10
118.40462
  20
163.97852
  42
0.047137464
  0
VERTEX
  5
725
  8
Layer_0
  10
119.27474
  20
163.97852
  0
SEQEND
  0
POLYLINE
  5
727
  8
Layer_0
  62
3
  66
1
  10
0
  20
0
  30
0
  0
VERTEX
  5
727
  8
Layer_0
  10
202.97784
  20
163.97852
  42
0.28852925
  0
VERTEX
  5
728
  8
Layer_0
  10
206.0069
  20
166.23389
  42
0.18770899
  0
VERTEX
  5
729
  8
Layer_0
  10
206.0069
  20
170.79248
  42
0.28420402
  0
VERTEX
  5
72a
  8
Layer_0
  10
202.97784
  20
173.01245
  42
0.15614756
  0
VERTEX
  5
72b
  8
Layer_0
  10
200.58868
  20
172.53906
  42
0.18583136
  0
VERTEX
  5
72c
  8
Layer_0
  10
198.92853
  20
170.39648
  42
0.16736401
  0
VERTEX
  5
72d
  8
Layer_0
  10
199.07843
  20
166.23389
  42
0.28854457
  0
VERTEX
  5
72e
  8
Layer_0
  10
202.10773
  20
163.97852
  42
0.047137464
  0
VERTEX
  5
72f
  8
Layer_0
  10
202.97784
  20
163.97852
  0
SEQEND
  0
POLYLINE
  5
731
  8
Layer_0
  62
3
  66
1
  10
0
  20
0
  30
0
  0
VERTEX
  5
731
  8
Layer_0
  10
134.92317
  20
163.97852
  0
VERTEX
  5
732
  8
Layer_0
  10
135.33699
  20
164.03931
  42
0.2572349
  0
VERTEX
  5
733
  8
Layer_0
  10
137.95222
  20
166.23389
  42
0.18771016
  0
VERTEX
  5
734
  8
Layer_0
  10
137.95222
  20
170.79248
  42
0.28420479
  0
VERTEX
  5
735
  8
Layer_0
  10
134.92317
  20
173.01245
  42
0.15614743
  0
VERTEX
  5
736
  8
Layer_0
  10
132.53403
  20
172.53906
  42
0.18583136
  0
VERTEX
  5
737
  8
Layer_0
  10
130.87387
  20
170.39648
  42
0.16736532
  0
VERTEX
  5
738
  8
Layer_0
  10
131.02377
  20
166.23389
  42
0.28854463
  0
VERTEX
  5
739
  8
Layer_0
  10
134.05305
  20
163.97852
  42
0.047138083
  0
VERTEX
  5
73a
  8
Layer_0
  10
134.92317
  20
163.97852
  0
SEQEND
  0
POLYLINE
  5
73c
  8
Layer_0
  62
3
  66
1
  10
0
  20
0
  30
0
  0
VERTEX
  5
73c
  8
Layer_0
  10
210.28522
  20
163.99414
  42
0.1559712
  0
VERTEX
  5
73d
  8
Layer_0
  10
212.14825
  20
164.65503
  42
0.25623052
  0
VERTEX
  5
73e
  8
Layer_0
  10
212.98004
  20
166.78198
  42
0.24173039
  0
VERTEX
  5
73f
  8
Layer_0
  10
211.92804
  20
168.45508
  42
0.030504223
  0
VERTEX
  5
740
  8
Layer_0
  10
211.01447
  20
168.98364
  0
VERTEX
  5
741
  8
Layer_0
  10
210.11749
  20
169.44507
  42
-0.092435461
  0
VERTEX
  5
742
  8
Layer_0
  10
209.13239
  20
170.1228
  42
-0.34341212
  0
VERTEX
  5
743
  8
Layer_0
  10
209.11871
  20
171.41699
  42
-0.22560815
  0
VERTEX
  5
744
  8
Layer_0
  10
210.40436
  20
171.94556
  42
-0.10627619
  0
VERTEX
  5
745
  8
Layer_0
  10
212.46025
  20
171.35352
  0
VERTEX
  5
746
  8
Layer_0
  10
212.76691
  20
171.19556
  0
VERTEX
  5
747
  8
Layer_0
  10
212.76691
  20
172.38306
  42
0.15984472
  0
VERTEX
  5
748
  8
Layer_0
  10
209.82086
  20
172.96216
  42
0.22946042
  0
VERTEX
  5
749
  8
Layer_0
  10
208.04889
  20
171.82422
  42
0.31848578
  0
VERTEX
  5
74a
  8
Layer_0
  10
208.30377
  20
169.2876
  42
0.089415636
  0
VERTEX
  5
74b
  8
Layer_0
  10
209.62115
  20
168.40015
  0
VERTEX
  5
74c
  8
Layer_0
  10
210.44537
  20
167.9873
  42
-0.09383175
  0
VERTEX
  5
74d
  8
Layer_0
  10
211.54254
  20
167.23071
  42
-0.36772809
  0
VERTEX
  5
74e
  8
Layer_0
  10
211.53156
  20
165.6377
  42
-0.19853732
  0
VERTEX
  5
74f
  8
Layer_0
  10
210.1402
  20
165.05225
  42
-0.12220526
  0
VERTEX
  5
750
  8
Layer_0
  10
208.52155
  20
165.39771
  42
-0.039375578
  0
VERTEX
  5
751
  8
Layer_0
  10
207.65436
  20
165.85815
  0
VERTEX
  5
752
  8
Layer_0
  10
207.65436
  20
164.6582
  42
0.1572719
  0
VERTEX
  5
753
  8
Layer_0
  10
210.28522
  20
163.99414
  0
SEQEND
  0
POLYLINE
  5
755
  8
Layer_0
  62
3
  66
1
  10
0
  20
0
  30
0
  0
VERTEX
  5
755
  8
Layer_0
  10
270.53033
  20
171.54785
  42
0.35600347
  0
VERTEX
  5
756
  8
Layer_0
  10
271.12012
  20
172.27039
  42
0.35600347
  0
VERTEX
  5
757
  8
Layer_0
  10
270.53033
  20
172.99292
  42
0.41418987
  0
VERTEX
  5
758
  8
Layer_0
  10
269.66095
  20
172.41724
  42
0.35921532
  0
VERTEX
  5
759
  8
Layer_0
  10
270.09454
  20
171.59033
  42
0.14853
  0
VERTEX
  5
75a
  8
Layer_0
  10
270.53033
  20
171.54785
  0
SEQEND
  0
POLYLINE
  5
75c
  8
Layer_0
  62
3
  66
1
  10
0
  20
0
  30
0
  0
VERTEX
  5
75c
  8
Layer_0
  10
142.23055
  20
163.99414
  0
VERTEX
  5
75d
  8
Layer_0
  10
142.54695
  20
164.0271
  42
0.16608844
  0
VERTEX
  5
75e
  8
Layer_0
  10
144.28328
  20
164.8269
  42
0.24572764
  0
VERTEX
  5
75f
  8
Layer_0
  10
144.89021
  20
167.03271
  42
0.20973526
  0
VERTEX
  5
760
  8
Layer_0
  10
143.87337
  20
168.45508
  42
0.030510215
  0
VERTEX
  5
761
  8
Layer_0
  10
142.95979
  20
168.98364
  0
VERTEX
  5
762
  8
Layer_0
  10
142.06282
  20
169.44507
  42
-0.092430851
  0
VERTEX
  5
763
  8
Layer_0
  10
141.07771
  20
170.1228
  42
-0.34341564
  0
VERTEX
  5
764
  8
Layer_0
  10
141.06404
  20
171.41699
  42
-0.22560641
  0
VERTEX
  5
765
  8
Layer_0
  10
142.34969
  20
171.94556
  42
-0.10627294
  0
VERTEX
  5
766
  8
Layer_0
  10
144.40559
  20
171.35352
  0
VERTEX
  5
767
  8
Layer_0
  10
144.71223
  20
171.19556
  0
VERTEX
  5
768
  8
Layer_0
  10
144.71223
  20
172.38306
  42
0.15984589
  0
VERTEX
  5
769
  8
Layer_0
  10
141.76619
  20
172.96216
  42
0.22946207
  0
VERTEX
  5
76a
  8
Layer_0
  10
139.99422
  20
171.82422
  42
0.31848103
  0
VERTEX
  5
76b
  8
Layer_0
  10
140.2491
  20
169.2876
  42
0.089413126
  0
VERTEX
  5
76c
  8
Layer_0
  10
141.56648
  20
168.40015
  0
VERTEX
  5
76d
  8
Layer_0
  10
142.3907
  20
167.9873
  42
-0.09383654
  0
VERTEX
  5
76e
  8
Layer_0
  10
143.48787
  20
167.23071
  42
-0.36772121
  0
VERTEX
  5
76f
  8
Layer_0
  10
143.47688
  20
165.6377
  42
-0.19853863
  0
VERTEX
  5
770
  8
Layer_0
  10
142.08553
  20
165.05225
  42
-0.12220369
  0
VERTEX
  5
771
  8
Layer_0
  10
140.46687
  20
165.39771
  42
-0.039356722
  0
VERTEX
  5
772
  8
Layer_0
  10
139.59969
  20
165.85815
  0
VERTEX
  5
773
  8
Layer_0
  10
139.59969
  20
164.6582
  42
0.15727204
  0
VERTEX
  5
774
  8
Layer_0
  10
142.23055
  20
163.99414
  0
SEQEND
  0
POLYLINE
  5
776
  8
Layer_0
  62
3
  66
1
  10
0
  20
0
  30
0
  0
VERTEX
  5
776
  8
Layer_0
  10
153.71809
  20
164.00024
  0
VERTEX
  5
777
  8
Layer_0
  10
154.10164
  20
164.05078
  42
0.11533213
  0
VERTEX
  5
778
  8
Layer_0
  10
156.21101
  20
164.94556
  0
VERTEX
  5
779
  8
Layer_0
  10
156.21101
  20
166.25806
  42
-0.099028526
  0
VERTEX
  5
77a
  8
Layer_0
  10
154.02083
  20
165.14551
  42
-0.21398736
  0
VERTEX
  5
77b
  8
Layer_0
  10
152.04622
  20
165.43188
  42
-0.17872361
  0
VERTEX
  5
77c
  8
Layer_0
  10
150.92439
  20
167.09375
  42
-0.15564588
  0
VERTEX
  5
77d
  8
Layer_0
  10
151.03694
  20
170.27148
  42
-0.2203241
  0
VERTEX
  5
77e
  8
Layer_0
  10
152.53914
  20
171.80151
  42
-0.14660759
  0
VERTEX
  5
77f
  8
Layer_0
  10
154.02083
  20
171.8457
  42
-0.098911235
  0
VERTEX
  5
780
  8
Layer_0
  10
156.21101
  20
170.73315
  0
VERTEX
  5
781
  8
Layer_0
  10
156.21101
  20
172.04565
  42
0.20622407
  0
VERTEX
  5
782
  8
Layer_0
  10
152.50154
  20
172.92651
  42
0.25494301
  0
VERTEX
  5
783
  8
Layer_0
  10
149.94661
  20
170.77563
  42
0.1301103
  0
VERTEX
  5
784
  8
Layer_0
  10
149.60139
  20
167.57202
  42
0.13733248
  0
VERTEX
  5
785
  8
Layer_0
  10
150.54085
  20
165.23926
  42
0.20410186
  0
VERTEX
  5
786
  8
Layer_0
  10
152.89998
  20
164.00415
  42
0.046413704
  0
VERTEX
  5
787
  8
Layer_0
  10
153.71809
  20
164.00024
  0
SEQEND
  0
POLYLINE
  5
789
  8
Layer_0
  62
3
  66
1
  10
0
  20
0
  30
0
  0
VERTEX
  5
789
  8
Layer_0
  10
109.41488
  20
167.4082
  42
0.017144776
  0
VERTEX
  5
78a
  8
Layer_0
  10
111.03695
  20
167.41968
  42
0.16847116
  0
VERTEX
  5
78b
  8
Layer_0
  10
112.8868
  20
168.12524
  42
0.19331953
  0
VERTEX
  5
78c
  8
Layer_0
  10
113.6888
  20
169.82861
  42
0.18181025
  0
VERTEX
  5
78d
  8
Layer_0
  10
113.23983
  20
171.72412
  42
0.18440868
  0
VERTEX
  5
78e
  8
Layer_0
  10
111.65292
  20
172.70605
  42
0.054794635
  0
VERTEX
  5
78f
  8
Layer_0
  10
110.67757
  20
172.80811
  0
VERTEX
  5
790
  8
Layer_0
  10
108.28988
  20
172.80811
  0
VERTEX
  5
791
  8
Layer_0
  10
108.28988
  20
164.18311
  0
VERTEX
  5
792
  8
Layer_0
  10
109.41488
  20
164.18311
  0
VERTEX
  5
793
  8
Layer_0
  10
109.41488
  20
167.4082
  0
SEQEND
  0
POLYLINE
  5
795
  8
Layer_0
  62
3
  66
1
  10
0
  20
0
  30
0
  0
VERTEX
  5
795
  8
Layer_0
  10
129.65121
  20
165.23315
  0
VERTEX
  5
796
  8
Layer_0
  10
125.65121
  20
165.23315
  0
VERTEX
  5
797
  8
Layer_0
  10
125.65121
  20
172.80811
  0
VERTEX
  5
798
  8
Layer_0
  10
124.52621
  20
172.80811
  0
VERTEX
  5
799
  8
Layer_0
  10
124.52621
  20
164.18311
  0
VERTEX
  5
79a
  8
Layer_0
  10
130.00131
  20
164.18311
  0
VERTEX
  5
79b
  8
Layer_0
  10
129.65121
  20
165.23315
  0
SEQEND
  0
POLYLINE
  5
79d
  8
Layer_0
  62
3
  66
1
  10
0
  20
0
  30
0
  0
VERTEX
  5
79d
  8
Layer_0
  10
198.00763
  20
172.80811
  0
VERTEX
  5
79e
  8
Layer_0
  10
196.83258
  20
172.80811
  0
VERTEX
  5
79f
  8
Layer_0
  10
194.30743
  20
166.14551
  0
VERTEX
  5
7a0
  8
Layer_0
  10
191.80743
  20
172.80811
  0
VERTEX
  5
7a1
  8
Layer_0
  10
190.58258
  20
172.80811
  0
VERTEX
  5
7a2
  8
Layer_0
  10
194.00763
  20
164.05811
  0
VERTEX
  5
7a3
  8
Layer_0
  10
194.58258
  20
164.05811
  0
VERTEX
  5
7a4
  8
Layer_0
  10
198.00763
  20
172.80811
  0
SEQEND
  0
POLYLINE
  5
7a6
  8
Layer_0
  62
3
  66
1
  10
0
  20
0
  30
0
  0
VERTEX
  5
7a6
  8
Layer_0
  10
159.11018
  20
167.83301
  0
VERTEX
  5
7a7
  8
Layer_0
  10
159.38533
  20
167.83301
  0
VERTEX
  5
7a8
  8
Layer_0
  10
162.59773
  20
164.18311
  0
VERTEX
  5
7a9
  8
Layer_0
  10
164.06038
  20
164.18311
  0
VERTEX
  5
7aa
  8
Layer_0
  10
160.74788
  20
167.8457
  0
VERTEX
  5
7ab
  8
Layer_0
  10
161.04524
  20
167.87183
  42
0.18721479
  0
VERTEX
  5
7ac
  8
Layer_0
  10
162.8448
  20
168.73926
  42
0.22616941
  0
VERTEX
  5
7ad
  8
Layer_0
  10
163.347
  20
170.89648
  42
0.2914052
  0
VERTEX
  5
7ae
  8
Layer_0
  10
161.70491
  20
172.64136
  42
0.074178119
  0
VERTEX
  5
7af
  8
Layer_0
  10
160.48518
  20
172.80811
  0
VERTEX
  5
7b0
  8
Layer_0
  10
157.98518
  20
172.80811
  0
VERTEX
  5
7b1
  8
Layer_0
  10
157.98518
  20
164.18311
  0
VERTEX
  5
7b2
  8
Layer_0
  10
159.11018
  20
164.18311
  0
VERTEX
  5
7b3
  8
Layer_0
  10
159.11018
  20
167.83301
  0
SEQEND
  0
POLYLINE
  5
7b5
  8
Layer_0
  62
3
  66
1
  10
0
  20
0
  30
0
  0
VERTEX
  5
7b5
  8
Layer_0
  10
170.43439
  20
165.23315
  0
VERTEX
  5
7b6
  8
Layer_0
  10
166.55939
  20
165.23315
  0
VERTEX
  5
7b7
  8
Layer_0
  10
166.55939
  20
168.1582
  0
VERTEX
  5
7b8
  8
Layer_0
  10
169.98444
  20
168.1582
  0
VERTEX
  5
7b9
  8
Layer_0
  10
169.98444
  20
169.20801
  0
VERTEX
  5
7ba
  8
Layer_0
  10
166.55939
  20
169.20801
  0
VERTEX
  5
7bb
  8
Layer_0
  10
166.55939
  20
171.75806
  0
VERTEX
  5
7bc
  8
Layer_0
  10
170.38458
  20
171.75806
  0
VERTEX
  5
7bd
  8
Layer_0
  10
170.73444
  20
172.80811
  0
VERTEX
  5
7be
  8
Layer_0
  10
165.4344
  20
172.80811
  0
VERTEX
  5
7bf
  8
Layer_0
  10
165.4344
  20
164.18311
  0
VERTEX
  5
7c0
  8
Layer_0
  10
170.78448
  20
164.18311
  0
VERTEX
  5
7c1
  8
Layer_0
  10
170.43439
  20
165.23315
  0
SEQEND
  0
POLYLINE
  5
7c3
  8
Layer_0
  62
3
  66
1
  10
0
  20
0
  30
0
  0
VERTEX
  5
7c3
  8
Layer_0
  10
189.25861
  20
172.80811
  0
VERTEX
  5
7c4
  8
Layer_0
  10
188.13361
  20
172.80811
  0
VERTEX
  5
7c5
  8
Layer_0
  10
188.13361
  20
164.18311
  0
VERTEX
  5
7c6
  8
Layer_0
  10
189.25861
  20
164.18311
  0
VERTEX
  5
7c7
  8
Layer_0
  10
189.25861
  20
172.80811
  0
SEQEND
  0
POLYLINE
  5
7c9
  8
Layer_0
  62
3
  66
1
  10
0
  20
0
  30
0
  0
VERTEX
  5
7c9
  8
Layer_0
  10
173.4715
  20
166.29565
  0
VERTEX
  5
7ca
  8
Layer_0
  10
177.33405
  20
166.29565
  0
VERTEX
  5
7cb
  8
Layer_0
  10
178.17169
  20
164.18311
  0
VERTEX
  5
7cc
  8
Layer_0
  10
179.409
  20
164.18311
  0
VERTEX
  5
7cd
  8
Layer_0
  10
175.784
  20
172.80811
  0
VERTEX
  5
7ce
  8
Layer_0
  10
175.05914
  20
172.80811
  0
VERTEX
  5
7cf
  8
Layer_0
  10
171.43414
  20
164.18311
  0
VERTEX
  5
7d0
  8
Layer_0
  10
172.62164
  20
164.18311
  0
VERTEX
  5
7d1
  8
Layer_0
  10
173.4715
  20
166.29565
  0
SEQEND
  0
POLYLINE
  5
7d3
  8
Layer_0
  62
3
  66
1
  10
0
  20
0
  30
0
  0
VERTEX
  5
7d3
  8
Layer_0
  10
183.3587
  20
171.75806
  0
VERTEX
  5
7d4
  8
Layer_0
  10
186.4837
  20
171.75806
  0
VERTEX
  5
7d5
  8
Layer_0
  10
186.8338
  20
172.80811
  0
VERTEX
  5
7d6
  8
Layer_0
  10
178.75861
  20
172.80811
  0
VERTEX
  5
7d7
  8
Layer_0
  10
179.1087
  20
171.75806
  0
VERTEX
  5
7d8
  8
Layer_0
  10
182.2337
  20
171.75806
  0
VERTEX
  5
7d9
  8
Layer_0
  10
182.2337
  20
164.18311
  0
VERTEX
  5
7da
  8
Layer_0
  10
183.3587
  20
164.18311
  0
VERTEX
  5
7db
  8
Layer_0
  10
183.3587
  20
171.75806
  0
SEQEND
  0
POLYLINE
  5
7dd
  8
Layer_0
  62
3
  66
1
  10
0
  20
0
  30
0
  0
VERTEX
  5
7dd
  8
Layer_0
  10
267.27496
  20
164.10767
  42
0.069825432
  0
VERTEX
  5
7de
  8
Layer_0
  10
268.49664
  20
164.42065
  0
VERTEX
  5
7df
  8
Layer_0
  10
268.49664
  20
165.42065
  0
VERTEX
  5
7e0
  8
Layer_0
  10
268.09283
  20
165.27441
  42
-0.07665419
  0
VERTEX
  5
7e1
  8
Layer_0
  10
266.95905
  20
165.05811
  42
-0.37962786
  0
VERTEX
  5
7e2
  8
Layer_0
  10
265.94098
  20
165.92773
  0
VERTEX
  5
7e3
  8
Layer_0
  10
265.92169
  20
166.1582
  0
VERTEX
  5
7e4
  8
Layer_0
  10
265.92169
  20
169.48315
  0
VERTEX
  5
7e5
  8
Layer_0
  10
268.32159
  20
169.48315
  0
VERTEX
  5
7e6
  8
Layer_0
  10
268.32159
  20
170.43311
  0
VERTEX
  5
7e7
  8
Layer_0
  10
265.92169
  20
170.43311
  0
VERTEX
  5
7e8
  8
Layer_0
  10
265.92169
  20
172.08301
  0
VERTEX
  5
7e9
  8
Layer_0
  10
264.87164
  20
172.08301
  0
VERTEX
  5
7ea
  8
Layer_0
  10
264.87164
  20
170.43311
  0
VERTEX
  5
7eb
  8
Layer_0
  10
263.62164
  20
170.43311
  0
VERTEX
  5
7ec
  8
Layer_0
  10
263.62164
  20
169.48315
  0
VERTEX
  5
7ed
  8
Layer_0
  10
264.87164
  20
169.48315
  0
VERTEX
  5
7ee
  8
Layer_0
  10
264.87164
  20
166.08301
  42
0.25565558
  0
VERTEX
  5
7ef
  8
Layer_0
  10
265.66437
  20
164.40942
  42
0.14956075
  0
VERTEX
  5
7f0
  8
Layer_0
  10
266.85919
  20
164.08301
  0
VERTEX
  5
7f1
  8
Layer_0
  10
267.27496
  20
164.10767
  0
SEQEND
  0
POLYLINE
  5
7f3
  8
Layer_0
  62
3
  66
1
  10
0
  20
0
  30
0
  0
VERTEX
  5
7f3
  8
Layer_0
  10
249.4019
  20
164.10767
  42
0.069825432
  0
VERTEX
  5
7f4
  8
Layer_0
  10
250.62358
  20
164.42065
  0
VERTEX
  5
7f5
  8
Layer_0
  10
250.62358
  20
165.42065
  0
VERTEX
  5
7f6
  8
Layer_0
  10
250.21977
  20
165.27441
  42
-0.076657863
  0
VERTEX
  5
7f7
  8
Layer_0
  10
249.08598
  20
165.05811
  42
-0.3796001
  0
VERTEX
  5
7f8
  8
Layer_0
  10
248.06792
  20
165.92773
  0
VERTEX
  5
7f9
  8
Layer_0
  10
248.04863
  20
166.1582
  0
VERTEX
  5
7fa
  8
Layer_0
  10
248.04863
  20
169.48315
  0
VERTEX
  5
7fb
  8
Layer_0
  10
250.44853
  20
169.48315
  0
VERTEX
  5
7fc
  8
Layer_0
  10
250.44853
  20
170.43311
  0
VERTEX
  5
7fd
  8
Layer_0
  10
248.04863
  20
170.43311
  0
VERTEX
  5
7fe
  8
Layer_0
  10
248.04863
  20
172.08301
  0
VERTEX
  5
7ff
  8
Layer_0
  10
246.99858
  20
172.08301
  0
VERTEX
  5
800
  8
Layer_0
  10
246.99858
  20
170.43311
  0
VERTEX
  5
801
  8
Layer_0
  10
245.74858
  20
170.43311
  0
VERTEX
  5
802
  8
Layer_0
  10
245.74858
  20
169.48315
  0
VERTEX
  5
803
  8
Layer_0
  10
246.99858
  20
169.48315
  0
VERTEX
  5
804
  8
Layer_0
  10
246.99858
  20
166.08301
  42
0.25566558
  0
VERTEX
  5
805
  8
Layer_0
  10
247.79131
  20
164.40942
  42
0.14955582
  0
VERTEX
  5
806
  8
Layer_0
  10
248.98613
  20
164.08301
  0
VERTEX
  5
807
  8
Layer_0
  10
249.4019
  20
164.10767
  0
SEQEND
  0
POLYLINE
  5
809
  8
Layer_0
  62
3
  66
1
  10
0
  20
0
  30
0
  0
VERTEX
  5
809
  8
Layer_0
  10
134.18806
  20
165.04761
  42
-0.27147727
  0
VERTEX
  5
80a
  8
Layer_0
  10
132.21909
  20
166.44312
  42
-0.12451079
  0
VERTEX
  5
80b
  8
Layer_0
  10
131.81284
  20
168.94653
  42
-0.12640662
  0
VERTEX
  5
80c
  8
Layer_0
  10
132.36484
  20
170.82349
  42
-0.26623065
  0
VERTEX
  5
80d
  8
Layer_0
  10
134.48811
  20
171.95801
  42
-0.32634082
  0
VERTEX
  5
80e
  8
Layer_0
  10
136.88191
  20
170.28833
  42
-0.18705155
  0
VERTEX
  5
80f
  8
Layer_0
  10
136.75691
  20
166.44312
  42
-0.30298471
  0
VERTEX
  5
810
  8
Layer_0
  10
134.48811
  20
165.0332
  0
VERTEX
  5
811
  8
Layer_0
  10
134.18806
  20
165.04761
  0
SEQEND
  0
POLYLINE
  5
813
  8
Layer_0
  62
3
  66
1
  10
0
  20
0
  30
0
  0
VERTEX
  5
813
  8
Layer_0
  10
118.53963
  20
165.04761
  42
-0.27147521
  0
VERTEX
  5
814
  8
Layer_0
  10
116.57064
  20
166.44312
  42
-0.12451079
  0
VERTEX
  5
815
  8
Layer_0
  10
116.16439
  20
168.94653
  42
-0.12640662
  0
VERTEX
  5
816
  8
Layer_0
  10
116.71639
  20
170.82349
  42
-0.2662286
  0
VERTEX
  5
817
  8
Layer_0
  10
118.83968
  20
171.95801
  42
-0.32634084
  0
VERTEX
  5
818
  8
Layer_0
  10
121.23348
  20
170.28833
  42
-0.18705155
  0
VERTEX
  5
819
  8
Layer_0
  10
121.10848
  20
166.44312
  42
-0.30298276
  0
VERTEX
  5
81a
  8
Layer_0
  10
118.83968
  20
165.0332
  0
VERTEX
  5
81b
  8
Layer_0
  10
118.53963
  20
165.04761
  0
SEQEND
  0
POLYLINE
  5
81d
  8
Layer_0
  62
3
  66
1
  10
0
  20
0
  30
0
  0
VERTEX
  5
81d
  8
Layer_0
  10
202.24274
  20
165.04761
  42
-0.21085282
  0
VERTEX
  5
81e
  8
Layer_0
  10
200.58478
  20
165.94238
  42
-0.13483788
  0
VERTEX
  5
81f
  8
Layer_0
  10
199.90338
  20
167.75342
  42
-0.12293935
  0
VERTEX
  5
820
  8
Layer_0
  10
200.14874
  20
170.28833
  42
-0.35721093
  0
VERTEX
  5
821
  8
Layer_0
  10
202.84283
  20
171.94336
  42
-0.29441868
  0
VERTEX
  5
822
  8
Layer_0
  10
204.93658
  20
170.28833
  42
-0.18705019
  0
VERTEX
  5
823
  8
Layer_0
  10
204.81158
  20
166.44312
  42
-0.30298471
  0
VERTEX
  5
824
  8
Layer_0
  10
202.54279
  20
165.0332
  0
VERTEX
  5
825
  8
Layer_0
  10
202.24274
  20
165.04761
  0
SEQEND
  0
POLYLINE
  5
827
  8
Layer_0
  62
3
  66
1
  10
0
  20
0
  30
0
  0
VERTEX
  5
827
  8
Layer_0
  10
159.11018
  20
168.7832
  0
VERTEX
  5
828
  8
Layer_0
  10
159.11018
  20
171.7832
  42
-0.016201657
  0
VERTEX
  5
829
  8
Layer_0
  10
160.63875
  20
171.77661
  42
-0.21925915
  0
VERTEX
  5
82a
  8
Layer_0
  10
161.95052
  20
171.17896
  42
-0.38960865
  0
VERTEX
  5
82b
  8
Layer_0
  10
161.71175
  20
169.20508
  42
-0.17473552
  0
VERTEX
  5
82c
  8
Layer_0
  10
160.38533
  20
168.7832
  0
VERTEX
  5
82d
  8
Layer_0
  10
159.11018
  20
168.7832
  0
SEQEND
  0
POLYLINE
  5
82f
  8
Layer_0
  62
3
  66
1
  10
0
  20
0
  30
0
  0
VERTEX
  5
82f
  8
Layer_0
  10
109.41488
  20
168.43311
  0
VERTEX
  5
830
  8
Layer_0
  10
109.41488
  20
171.7832
  42
-0.017027241
  0
VERTEX
  5
831
  8
Layer_0
  10
110.84237
  20
171.77588
  42
-0.22530467
  0
VERTEX
  5
832
  8
Layer_0
  10
112.23617
  20
171.10864
  42
-0.38768087
  0
VERTEX
  5
833
  8
Layer_0
  10
111.90316
  20
168.79053
  42
-0.15849861
  0
VERTEX
  5
834
  8
Layer_0
  10
110.65243
  20
168.43311
  0
VERTEX
  5
835
  8
Layer_0
  10
109.41488
  20
168.43311
  0
SEQEND
  0
POLYLINE
  5
837
  8
Layer_0
  62
3
  66
1
  10
0
  20
0
  30
0
  0
VERTEX
  5
837
  8
Layer_0
  10
173.88409
  20
167.32056
  0
VERTEX
  5
838
  8
Layer_0
  10
175.409
  20
171.10815
  0
VERTEX
  5
839
  8
Layer_0
  10
176.92169
  20
167.32056
  0
VERTEX
  5
83a
  8
Layer_0
  10
173.88409
  20
167.32056
  0
SEQEND
  0
POLYLINE
  5
83c
  8
Layer_0
  62
3
  66
1
  10
0
  20
0
  30
0
  0
VERTEX
  5
83c
  8
Layer_0
  10
237.38139
  20
163.99512
  42
0.11230226
  0
VERTEX
  5
83d
  8
Layer_0
  10
239.24931
  20
164.58301
  0
VERTEX
  5
83e
  8
Layer_0
  10
239.24931
  20
165.62061
  0
VERTEX
  5
83f
  8
Layer_0
  10
238.72563
  20
165.35889
  42
-0.080027354
  0
VERTEX
  5
840
  8
Layer_0
  10
237.37822
  20
164.97119
  42
-0.36834673
  0
VERTEX
  5
841
  8
Layer_0
  10
235.44218
  20
166.18164
  42
-0.072272835
  0
VERTEX
  5
842
  8
Layer_0
  10
235.26176
  20
167.07056
  0
VERTEX
  5
843
  8
Layer_0
  10
239.56181
  20
167.07056
  42
0.15295273
  0
VERTEX
  5
844
  8
Layer_0
  10
239.33354
  20
169.20581
  42
0.33247957
  0
VERTEX
  5
845
  8
Layer_0
  10
236.70195
  20
170.64282
  42
0.28832423
  0
VERTEX
  5
846
  8
Layer_0
  10
234.49004
  20
168.99048
  42
0.20828746
  0
VERTEX
  5
847
  8
Layer_0
  10
234.63042
  20
165.37231
  42
0.25873199
  0
VERTEX
  5
848
  8
Layer_0
  10
236.76787
  20
163.99829
  42
0.044021596
  0
VERTEX
  5
849
  8
Layer_0
  10
237.38139
  20
163.99512
  0
SEQEND
  0
POLYLINE
  5
84b
  8
Layer_0
  62
3
  66
1
  10
0
  20
0
  30
0
  0
VERTEX
  5
84b
  8
Layer_0
  10
279.61383
  20
163.99512
  42
0.11229883
  0
VERTEX
  5
84c
  8
Layer_0
  10
281.48175
  20
164.58301
  0
VERTEX
  5
84d
  8
Layer_0
  10
281.48175
  20
165.62061
  0
VERTEX
  5
84e
  8
Layer_0
  10
280.95807
  20
165.35889
  42
-0.080027354
  0
VERTEX
  5
84f
  8
Layer_0
  10
279.61066
  20
164.97119
  42
-0.36834673
  0
VERTEX
  5
850
  8
Layer_0
  10
277.67462
  20
166.18164
  42
-0.072285433
  0
VERTEX
  5
851
  8
Layer_0
  10
277.4942
  20
167.07056
  0
VERTEX
  5
852
  8
Layer_0
  10
281.79425
  20
167.07056
  42
0.15294262
  0
VERTEX
  5
853
  8
Layer_0
  10
281.56598
  20
169.20581
  42
0.33247664
  0
VERTEX
  5
854
  8
Layer_0
  10
278.93439
  20
170.64282
  42
0.2883323
  0
VERTEX
  5
855
  8
Layer_0
  10
276.72247
  20
168.99048
  42
0.20829041
  0
VERTEX
  5
856
  8
Layer_0
  10
276.86285
  20
165.37231
  42
0.25873596
  0
VERTEX
  5
857
  8
Layer_0
  10
279.00031
  20
163.99829
  42
0.044058967
  0
VERTEX
  5
858
  8
Layer_0
  10
279.61383
  20
163.99512
  0
SEQEND
  0
POLYLINE
  5
85a
  8
Layer_0
  62
3
  66
1
  10
0
  20
0
  30
0
  0
VERTEX
  5
85a
  8
Layer_0
  10
254.64311
  20
163.99512
  42
0.11229931
  0
VERTEX
  5
85b
  8
Layer_0
  10
256.51105
  20
164.58301
  0
VERTEX
  5
85c
  8
Layer_0
  10
256.51105
  20
165.62061
  0
VERTEX
  5
85d
  8
Layer_0
  10
255.98735
  20
165.35889
  42
-0.080027354
  0
VERTEX
  5
85e
  8
Layer_0
  10
254.63994
  20
164.97119
  42
-0.36834673
  0
VERTEX
  5
85f
  8
Layer_0
  10
252.7039
  20
166.18164
  42
-0.072274246
  0
VERTEX
  5
860
  8
Layer_0
  10
252.52348
  20
167.07056
  0
VERTEX
  5
861
  8
Layer_0
  10
256.82355
  20
167.07056
  42
0.15294262
  0
VERTEX
  5
862
  8
Layer_0
  10
256.59528
  20
169.20581
  42
0.3324761
  0
VERTEX
  5
863
  8
Layer_0
  10
253.96367
  20
170.64282
  42
0.2883281
  0
VERTEX
  5
864
  8
Layer_0
  10
251.75175
  20
168.99048
  42
0.20829041
  0
VERTEX
  5
865
  8
Layer_0
  10
251.89214
  20
165.37231
  42
0.25873199
  0
VERTEX
  5
866
  8
Layer_0
  10
254.02959
  20
163.99829
  42
0.044058967
  0
VERTEX
  5
867
  8
Layer_0
  10
254.64311
  20
163.99512
  0
SEQEND
  0
POLYLINE
  5
869
  8
Layer_0
  62
3
  66
1
  10
0
  20
0
  30
0
  0
VERTEX
  5
869
  8
Layer_0
  10
285.54352
  20
164.01709
  42
0.1812017
  0
VERTEX
  5
86a
  8
Layer_0
  10
287.20685
  20
164.677
  42
0.35813114
  0
VERTEX
  5
86b
  8
Layer_0
  10
287.39578
  20
166.99707
  42
0.13352284
  0
VERTEX
  5
86c
  8
Layer_0
  10
286.52716
  20
167.60522
  42
0.025813325
  0
VERTEX
  5
86d
  8
Layer_0
  10
285.16095
  20
168.02295
  0
VERTEX
  5
86e
  8
Layer_0
  10
284.90533
  20
168.10889
  42
-0.1789946
  0
VERTEX
  5
86f
  8
Layer_0
  10
284.28058
  20
168.55005
  42
-0.37294324
  0
VERTEX
  5
870
  8
Layer_0
  10
284.49689
  20
169.41113
  42
-0.17499654
  0
VERTEX
  5
871
  8
Layer_0
  10
285.62677
  20
169.64771
  42
-0.078698266
  0
VERTEX
  5
872
  8
Layer_0
  10
287.45633
  20
169.12061
  0
VERTEX
  5
873
  8
Layer_0
  10
287.45633
  20
170.17065
  42
0.11484556
  0
VERTEX
  5
874
  8
Layer_0
  10
285.1424
  20
170.59863
  42
0.19084848
  0
VERTEX
  5
875
  8
Layer_0
  10
283.61798
  20
169.94727
  42
0.36994074
  0
VERTEX
  5
876
  8
Layer_0
  10
283.56769
  20
167.70264
  42
0.12998769
  0
VERTEX
  5
877
  8
Layer_0
  10
284.49982
  20
167.1543
  42
0.0075267807
  0
VERTEX
  5
878
  8
Layer_0
  10
285.53961
  20
166.85376
  0
VERTEX
  5
879
  8
Layer_0
  10
285.80402
  20
166.77124
  42
-0.16151198
  0
VERTEX
  5
87a
  8
Layer_0
  10
286.55719
  20
166.302
  42
-0.34048324
  0
VERTEX
  5
87b
  8
Layer_0
  10
286.45538
  20
165.36987
  42
-0.17474894
  0
VERTEX
  5
87c
  8
Layer_0
  10
285.56354
  20
164.98828
  42
-0.096940474
  0
VERTEX
  5
87d
  8
Layer_0
  10
284.26251
  20
165.13306
  42
-0.039119325
  0
VERTEX
  5
87e
  8
Layer_0
  10
283.20636
  20
165.52051
  0
VERTEX
  5
87f
  8
Layer_0
  10
283.20636
  20
164.44556
  42
0.12006968
  0
VERTEX
  5
880
  8
Layer_0
  10
285.54352
  20
164.01709
  0
SEQEND
  0
POLYLINE
  5
882
  8
Layer_0
  62
3
  66
1
  10
0
  20
0
  30
0
  0
VERTEX
  5
882
  8
Layer_0
  10
270.90875
  20
170.43311
  0
VERTEX
  5
883
  8
Layer_0
  10
269.8587
  20
170.43311
  0
VERTEX
  5
884
  8
Layer_0
  10
269.8587
  20
164.18311
  0
VERTEX
  5
885
  8
Layer_0
  10
270.90875
  20
164.18311
  0
VERTEX
  5
886
  8
Layer_0
  10
270.90875
  20
170.43311
  0
SEQEND
  0
POLYLINE
  5
888
  8
Layer_0
  62
3
  66
1
  10
0
  20
0
  30
0
  0
VERTEX
  5
888
  8
Layer_0
  10
260.36066
  20
166.55811
  0
VERTEX
  5
889
  8
Layer_0
  10
262.04816
  20
164.18311
  0
VERTEX
  5
88a
  8
Layer_0
  10
263.27325
  20
164.18311
  0
VERTEX
  5
88b
  8
Layer_0
  10
261.02325
  20
167.35815
  0
VERTEX
  5
88c
  8
Layer_0
  10
263.19806
  20
170.43311
  0
VERTEX
  5
88d
  8
Layer_0
  10
262.03571
  20
170.43311
  0
VERTEX
  5
88e
  8
Layer_0
  10
260.43561
  20
168.17065
  0
VERTEX
  5
88f
  8
Layer_0
  10
258.83575
  20
170.43311
  0
VERTEX
  5
890
  8
Layer_0
  10
257.61066
  20
170.43311
  0
VERTEX
  5
891
  8
Layer_0
  10
259.77325
  20
167.38306
  0
VERTEX
  5
892
  8
Layer_0
  10
257.53571
  20
164.18311
  0
VERTEX
  5
893
  8
Layer_0
  10
258.69806
  20
164.18311
  0
VERTEX
  5
894
  8
Layer_0
  10
260.36066
  20
166.55811
  0
SEQEND
  0
POLYLINE
  5
896
  8
Layer_0
  62
3
  66
1
  10
0
  20
0
  30
0
  0
VERTEX
  5
896
  8
Layer_0
  10
252.54863
  20
167.92065
  0
VERTEX
  5
897
  8
Layer_0
  10
252.57964
  20
168.13232
  42
-0.20845959
  0
VERTEX
  5
898
  8
Layer_0
  10
253.32695
  20
169.44897
  42
-0.33087595
  0
VERTEX
  5
899
  8
Layer_0
  10
255.29131
  20
169.32422
  42
-0.2049615
  0
VERTEX
  5
89a
  8
Layer_0
  10
255.81108
  20
167.92065
  0
VERTEX
  5
89b
  8
Layer_0
  10
252.54863
  20
167.92065
  0
SEQEND
  0
POLYLINE
  5
89d
  8
Layer_0
  62
3
  66
1
  10
0
  20
0
  30
0
  0
VERTEX
  5
89d
  8
Layer_0
  10
235.28691
  20
167.92065
  0
VERTEX
  5
89e
  8
Layer_0
  10
235.31792
  20
168.13232
  42
-0.20845959
  0
VERTEX
  5
89f
  8
Layer_0
  10
236.06523
  20
169.44897
  42
-0.33087595
  0
VERTEX
  5
8a0
  8
Layer_0
  10
238.02959
  20
169.32422
  42
-0.20496914
  0
VERTEX
  5
8a1
  8
Layer_0
  10
238.54936
  20
167.92065
  0
VERTEX
  5
8a2
  8
Layer_0
  10
235.28691
  20
167.92065
  0
SEQEND
  0
POLYLINE
  5
8a4
  8
Layer_0
  62
3
  66
1
  10
0
  20
0
  30
0
  0
VERTEX
  5
8a4
  8
Layer_0
  10
277.51935
  20
167.92065
  0
VERTEX
  5
8a5
  8
Layer_0
  10
277.55035
  20
168.13232
  42
-0.20847165
  0
VERTEX
  5
8a6
  8
Layer_0
  10
278.29767
  20
169.44897
  42
-0.33087595
  0
VERTEX
  5
8a7
  8
Layer_0
  10
280.26202
  20
169.32422
  42
-0.2049615
  0
VERTEX
  5
8a8
  8
Layer_0
  10
280.7818
  20
167.92065
  0
VERTEX
  5
8a9
  8
Layer_0
  10
277.51935
  20
167.92065
  0
SEQEND
  0
POLYLINE
  5
8ab
  8
Layer_0
  62
3
  66
1
  10
0
  20
0
  30
0
  0
VERTEX
  5
8ab
  8
Layer_0
  10
244.97392
  20
168.1582
  0
VERTEX
  5
8ac
  8
Layer_0
  10
241.07402
  20
168.1582
  0
VERTEX
  5
8ad
  8
Layer_0
  10
241.07402
  20
167.05811
  0
VERTEX
  5
8ae
  8
Layer_0
  10
244.97392
  20
167.05811
  0
VERTEX
  5
8af
  8
Layer_0
  10
244.97392
  20
168.1582
  0
SEQEND
  0
POLYLINE
  5
8b1
  8
Layer_0
  62
3
  66
1
  10
0
  20
0
  30
0
  0
VERTEX
  5
8b1
  8
Layer_0
  10
214.87988
  20
148.11151
  42
0.13518549
  0
VERTEX
  5
8b2
  8
Layer_0
  10
216.37573
  20
148.67865
  0
VERTEX
  5
8b3
  8
Layer_0
  10
216.37573
  20
149.46625
  42
-0.12578198
  0
VERTEX
  5
8b4
  8
Layer_0
  10
214.85231
  20
148.7597
  42
-0.36926717
  0
VERTEX
  5
8b5
  8
Layer_0
  10
213.26515
  20
149.78094
  42
-0.21536276
  0
VERTEX
  5
8b6
  8
Layer_0
  10
213.43459
  20
152.19305
  42
-0.33697184
  0
VERTEX
  5
8b7
  8
Layer_0
  10
215.06152
  20
152.81879
  42
-0.098833948
  0
VERTEX
  5
8b8
  8
Layer_0
  10
216.37573
  20
152.15131
  0
VERTEX
  5
8b9
  8
Layer_0
  10
216.37573
  20
152.93866
  42
0.26060563
  0
VERTEX
  5
8ba
  8
Layer_0
  10
213.7029
  20
153.32465
  42
0.2395065
  0
VERTEX
  5
8bb
  8
Layer_0
  10
212.46095
  20
151.68866
  42
0.16694953
  0
VERTEX
  5
8bc
  8
Layer_0
  10
212.71437
  20
149.25262
  42
0.31859724
  0
VERTEX
  5
8bd
  8
Layer_0
  10
214.87988
  20
148.11151
  0
SEQEND
  0
POLYLINE
  5
8bf
  8
Layer_0
  62
3
  66
1
  10
0
  20
0
  30
0
  0
VERTEX
  5
8bf
  8
Layer_0
  10
263.99072
  20
148.11151
  42
0.13521373
  0
VERTEX
  5
8c0
  8
Layer_0
  10
265.48657
  20
148.67865
  0
VERTEX
  5
8c1
  8
Layer_0
  10
265.48657
  20
149.46625
  42
-0.12584101
  0
VERTEX
  5
8c2
  8
Layer_0
  10
263.96313
  20
148.7597
  42
-0.36927697
  0
VERTEX
  5
8c3
  8
Layer_0
  10
262.37622
  20
149.78094
  42
-0.21543951
  0
VERTEX
  5
8c4
  8
Layer_0
  10
262.54541
  20
152.19305
  42
-0.33697099
  0
VERTEX
  5
8c5
  8
Layer_0
  10
264.17261
  20
152.81879
  42
-0.098905071
  0
VERTEX
  5
8c6
  8
Layer_0
  10
265.48657
  20
152.15131
  0
VERTEX
  5
8c7
  8
Layer_0
  10
265.48657
  20
152.93866
  42
0.26061236
  0
VERTEX
  5
8c8
  8
Layer_0
  10
262.81372
  20
153.32465
  42
0.23936243
  0
VERTEX
  5
8c9
  8
Layer_0
  10
261.57178
  20
151.68866
  42
0.16703026
  0
VERTEX
  5
8ca
  8
Layer_0
  10
261.82544
  20
149.25262
  42
0.31866357
  0
VERTEX
  5
8cb
  8
Layer_0
  10
263.99072
  20
148.11151
  0
SEQEND
  0
POLYLINE
  5
8cd
  8
Layer_0
  62
3
  66
1
  10
0
  20
0
  30
0
  0
VERTEX
  5
8cd
  8
Layer_0
  10
238.47632
  20
148.09735
  42
0.38690382
  0
VERTEX
  5
8ce
  8
Layer_0
  10
240.54956
  20
150.17377
  42
0.072850063
  0
VERTEX
  5
8cf
  8
Layer_0
  10
240.51514
  20
150.89862
  0
VERTEX
  5
8d0
  8
Layer_0
  10
238.19775
  20
150.89862
  0
VERTEX
  5
8d1
  8
Layer_0
  10
238.40015
  20
150.26874
  0
VERTEX
  5
8d2
  8
Layer_0
  10
239.84766
  20
150.26874
  42
-0.21250716
  0
VERTEX
  5
8d3
  8
Layer_0
  10
239.28374
  20
149.09866
  42
-0.2125108
  0
VERTEX
  5
8d4
  8
Layer_0
  10
238.03516
  20
148.74066
  42
-0.29126498
  0
VERTEX
  5
8d5
  8
Layer_0
  10
236.77344
  20
149.76923
  42
-0.21461059
  0
VERTEX
  5
8d6
  8
Layer_0
  10
236.88647
  20
152.01385
  42
-0.3620841
  0
VERTEX
  5
8d7
  8
Layer_0
  10
239.00732
  20
152.76727
  42
-0.063123801
  0
VERTEX
  5
8d8
  8
Layer_0
  10
240.19263
  20
152.21112
  0
VERTEX
  5
8d9
  8
Layer_0
  10
240.19263
  20
152.99115
  42
0.12725841
  0
VERTEX
  5
8da
  8
Layer_0
  10
238.41528
  20
153.5163
  42
0.27016189
  0
VERTEX
  5
8db
  8
Layer_0
  10
236.27173
  20
152.38934
  42
0.17219354
  0
VERTEX
  5
8dc
  8
Layer_0
  10
235.91406
  20
150.2287
  42
0.20152684
  0
VERTEX
  5
8dd
  8
Layer_0
  10
236.83936
  20
148.5097
  42
0.18414223
  0
VERTEX
  5
8de
  8
Layer_0
  10
238.47632
  20
148.09735
  0
SEQEND
  0
POLYLINE
  5
8e0
  8
Layer_0
  62
3
  66
1
  10
0
  20
0
  30
0
  0
VERTEX
  5
8e0
  8
Layer_0
  10
139.66385
  20
148.09735
  0
VERTEX
  5
8e1
  8
Layer_0
  10
139.91458
  20
148.13055
  42
0.35637422
  0
VERTEX
  5
8e2
  8
Layer_0
  10
141.73709
  20
150.17377
  42
0.072834476
  0
VERTEX
  5
8e3
  8
Layer_0
  10
141.70267
  20
150.89862
  0
VERTEX
  5
8e4
  8
Layer_0
  10
139.38528
  20
150.89862
  0
VERTEX
  5
8e5
  8
Layer_0
  10
139.58768
  20
150.26874
  0
VERTEX
  5
8e6
  8
Layer_0
  10
141.03519
  20
150.26874
  42
-0.21250496
  0
VERTEX
  5
8e7
  8
Layer_0
  10
140.47115
  20
149.0986
  42
-0.21250911
  0
VERTEX
  5
8e8
  8
Layer_0
  10
139.22244
  20
148.74066
  42
-0.29121801
  0
VERTEX
  5
8e9
  8
Layer_0
  10
137.96097
  20
149.76923
  42
-0.21461749
  0
VERTEX
  5
8ea
  8
Layer_0
  10
138.07401
  20
152.01385
  42
-0.3620854
  0
VERTEX
  5
8eb
  8
Layer_0
  10
140.19485
  20
152.76727
  42
-0.063121287
  0
VERTEX
  5
8ec
  8
Layer_0
  10
141.38016
  20
152.21112
  0
VERTEX
  5
8ed
  8
Layer_0
  10
141.38016
  20
152.99115
  42
0.12724358
  0
VERTEX
  5
8ee
  8
Layer_0
  10
139.60281
  20
153.5163
  42
0.27016374
  0
VERTEX
  5
8ef
  8
Layer_0
  10
137.45926
  20
152.38934
  42
0.17219611
  0
VERTEX
  5
8f0
  8
Layer_0
  10
137.10159
  20
150.2287
  42
0.20152975
  0
VERTEX
  5
8f1
  8
Layer_0
  10
138.02689
  20
148.5097
  42
0.18414338
  0
VERTEX
  5
8f2
  8
Layer_0
  10
139.66385
  20
148.09735
  0
SEQEND
  0
POLYLINE
  5
8f4
  8
Layer_0
  62
3
  66
1
  10
0
  20
0
  30
0
  0
VERTEX
  5
8f4
  8
Layer_0
  10
127.34476
  20
148.10785
  0
VERTEX
  5
8f5
  8
Layer_0
  10
127.53471
  20
148.12762
  42
0.25912057
  0
VERTEX
  5
8f6
  8
Layer_0
  10
128.83597
  20
148.9809
  42
0.26081165
  0
VERTEX
  5
8f7
  8
Layer_0
  10
128.72708
  20
150.41986
  42
0.10966547
  0
VERTEX
  5
8f8
  8
Layer_0
  10
127.78251
  20
151.1015
  0
VERTEX
  5
8f9
  8
Layer_0
  10
127.24418
  20
151.37836
  42
-0.0922367
  0
VERTEX
  5
8fa
  8
Layer_0
  10
126.65311
  20
151.7851
  42
-0.34295157
  0
VERTEX
  5
8fb
  8
Layer_0
  10
126.64481
  20
152.56171
  42
-0.23212625
  0
VERTEX
  5
8fc
  8
Layer_0
  10
127.4163
  20
152.87885
  42
-0.10064166
  0
VERTEX
  5
8fd
  8
Layer_0
  10
128.46463
  20
152.6098
  0
VERTEX
  5
8fe
  8
Layer_0
  10
128.83377
  20
152.42865
  0
VERTEX
  5
8ff
  8
Layer_0
  10
128.83377
  20
153.1413
  42
0.16201879
  0
VERTEX
  5
900
  8
Layer_0
  10
127.0662
  20
153.48871
  42
0.25432971
  0
VERTEX
  5
901
  8
Layer_0
  10
125.94291
  20
152.68719
  42
0.37831244
  0
VERTEX
  5
902
  8
Layer_0
  10
126.45267
  20
151.03412
  42
0.023251592
  0
VERTEX
  5
903
  8
Layer_0
  10
127.64164
  20
150.39618
  0
VERTEX
  5
904
  8
Layer_0
  10
127.82059
  20
150.28729
  42
-0.27543416
  0
VERTEX
  5
905
  8
Layer_0
  10
128.27127
  20
149.58612
  42
-0.3002667
  0
VERTEX
  5
906
  8
Layer_0
  10
127.7952
  20
148.8725
  42
-0.20262991
  0
VERTEX
  5
907
  8
Layer_0
  10
126.46586
  20
148.87836
  42
-0.053270139
  0
VERTEX
  5
908
  8
Layer_0
  10
125.7664
  20
149.22626
  0
VERTEX
  5
909
  8
Layer_0
  10
125.7664
  20
148.50629
  42
0.15840327
  0
VERTEX
  5
90a
  8
Layer_0
  10
127.34476
  20
148.10785
  0
SEQEND
  0
POLYLINE
  5
90c
  8
Layer_0
  62
3
  66
1
  10
0
  20
0
  30
0
  0
VERTEX
  5
90c
  8
Layer_0
  10
220.44019
  20
148.85126
  0
VERTEX
  5
90d
  8
Layer_0
  10
218.11523
  20
148.85126
  0
VERTEX
  5
90e
  8
Layer_0
  10
218.11523
  20
150.60614
  0
VERTEX
  5
90f
  8
Layer_0
  10
220.17017
  20
150.60614
  0
VERTEX
  5
910
  8
Layer_0
  10
220.17017
  20
151.23627
  0
VERTEX
  5
911
  8
Layer_0
  10
218.11523
  20
151.23627
  0
VERTEX
  5
912
  8
Layer_0
  10
218.11523
  20
152.7663
  0
VERTEX
  5
913
  8
Layer_0
  10
220.41016
  20
152.7663
  0
VERTEX
  5
914
  8
Layer_0
  10
220.62038
  20
153.39618
  0
VERTEX
  5
915
  8
Layer_0
  10
217.44019
  20
153.39618
  0
VERTEX
  5
916
  8
Layer_0
  10
217.44019
  20
148.22113
  0
VERTEX
  5
917
  8
Layer_0
  10
220.65015
  20
148.22113
  0
VERTEX
  5
918
  8
Layer_0
  10
220.44019
  20
148.85126
  0
SEQEND
  0
POLYLINE
  5
91a
  8
Layer_0
  62
3
  66
1
  10
0
  20
0
  30
0
  0
VERTEX
  5
91a
  8
Layer_0
  10
113.1082
  20
150.7038
  0
VERTEX
  5
91b
  8
Layer_0
  10
115.44828
  20
148.22113
  0
VERTEX
  5
91c
  8
Layer_0
  10
116.34818
  20
148.22113
  0
VERTEX
  5
91d
  8
Layer_0
  10
113.82816
  20
150.8913
  0
VERTEX
  5
91e
  8
Layer_0
  10
116.28812
  20
153.39618
  0
VERTEX
  5
91f
  8
Layer_0
  10
115.41825
  20
153.39618
  0
VERTEX
  5
920
  8
Layer_0
  10
113.22831
  20
151.16864
  0
VERTEX
  5
921
  8
Layer_0
  10
113.1082
  20
151.16864
  0
VERTEX
  5
922
  8
Layer_0
  10
113.1082
  20
153.39618
  0
VERTEX
  5
923
  8
Layer_0
  10
112.43315
  20
153.39618
  0
VERTEX
  5
924
  8
Layer_0
  10
112.43315
  20
148.22113
  0
VERTEX
  5
925
  8
Layer_0
  10
113.1082
  20
148.22113
  0
VERTEX
  5
926
  8
Layer_0
  10
113.1082
  20
150.7038
  0
SEQEND
  0
POLYLINE
  5
928
  8
Layer_0
  62
3
  66
1
  10
0
  20
0
  30
0
  0
VERTEX
  5
928
  8
Layer_0
  10
130.70853
  20
153.39618
  0
VERTEX
  5
929
  8
Layer_0
  10
130.03372
  20
153.39618
  0
VERTEX
  5
92a
  8
Layer_0
  10
130.03372
  20
148.22113
  0
VERTEX
  5
92b
  8
Layer_0
  10
130.70853
  20
148.22113
  0
VERTEX
  5
92c
  8
Layer_0
  10
130.70853
  20
153.39618
  0
SEQEND
  0
POLYLINE
  5
92e
  8
Layer_0
  62
3
  66
1
  10
0
  20
0
  30
0
  0
VERTEX
  5
92e
  8
Layer_0
  10
234.79346
  20
153.39618
  0
VERTEX
  5
92f
  8
Layer_0
  10
234.11841
  20
153.39618
  0
VERTEX
  5
930
  8
Layer_0
  10
234.11841
  20
148.22113
  0
VERTEX
  5
931
  8
Layer_0
  10
234.79346
  20
148.22113
  0
VERTEX
  5
932
  8
Layer_0
  10
234.79346
  20
153.39618
  0
SEQEND
  0
POLYLINE
  5
934
  8
Layer_0
  62
3
  66
1
  10
0
  20
0
  30
0
  0
VERTEX
  5
934
  8
Layer_0
  10
132.76297
  20
152.17377
  0
VERTEX
  5
935
  8
Layer_0
  10
135.59793
  20
148.22113
  0
VERTEX
  5
936
  8
Layer_0
  10
135.9805
  20
148.22113
  0
VERTEX
  5
937
  8
Layer_0
  10
135.9805
  20
153.39618
  0
VERTEX
  5
938
  8
Layer_0
  10
135.30545
  20
153.39618
  0
VERTEX
  5
939
  8
Layer_0
  10
135.30545
  20
149.70624
  0
VERTEX
  5
93a
  8
Layer_0
  10
132.65799
  20
153.39618
  0
VERTEX
  5
93b
  8
Layer_0
  10
132.08792
  20
153.39618
  0
VERTEX
  5
93c
  8
Layer_0
  10
132.08792
  20
148.22113
  0
VERTEX
  5
93d
  8
Layer_0
  10
132.76297
  20
148.22113
  0
VERTEX
  5
93e
  8
Layer_0
  10
132.76297
  20
152.17377
  0
SEQEND
  0
POLYLINE
  5
940
  8
Layer_0
  62
3
  66
1
  10
0
  20
0
  30
0
  0
VERTEX
  5
940
  8
Layer_0
  10
267.22607
  20
150.60614
  0
VERTEX
  5
941
  8
Layer_0
  10
269.80615
  20
150.60614
  0
VERTEX
  5
942
  8
Layer_0
  10
269.80615
  20
148.22113
  0
VERTEX
  5
943
  8
Layer_0
  10
270.4812
  20
148.22113
  0
VERTEX
  5
944
  8
Layer_0
  10
270.4812
  20
153.39618
  0
VERTEX
  5
945
  8
Layer_0
  10
269.80615
  20
153.39618
  0
VERTEX
  5
946
  8
Layer_0
  10
269.80615
  20
151.23627
  0
VERTEX
  5
947
  8
Layer_0
  10
267.22607
  20
151.23627
  0
VERTEX
  5
948
  8
Layer_0
  10
267.22607
  20
153.39618
  0
VERTEX
  5
949
  8
Layer_0
  10
266.55127
  20
153.39618
  0
VERTEX
  5
94a
  8
Layer_0
  10
266.55127
  20
148.22113
  0
VERTEX
  5
94b
  8
Layer_0
  10
267.22607
  20
148.22113
  0
VERTEX
  5
94c
  8
Layer_0
  10
267.22607
  20
150.60614
  0
SEQEND
  0
POLYLINE
  5
94e
  8
Layer_0
  62
3
  66
1
  10
0
  20
0
  30
0
  0
VERTEX
  5
94e
  8
Layer_0
  10
228.57668
  20
150.15619
  42
0.017640663
  0
VERTEX
  5
94f
  8
Layer_0
  10
229.54982
  20
150.16327
  42
0.26224292
  0
VERTEX
  5
950
  8
Layer_0
  10
230.95216
  20
150.95575
  42
0.29845572
  0
VERTEX
  5
951
  8
Layer_0
  10
230.77419
  20
152.86591
  42
0.21036459
  0
VERTEX
  5
952
  8
Layer_0
  10
229.334
  20
153.39618
  0
VERTEX
  5
953
  8
Layer_0
  10
227.90163
  20
153.39618
  0
VERTEX
  5
954
  8
Layer_0
  10
227.90163
  20
148.22113
  0
VERTEX
  5
955
  8
Layer_0
  10
228.57668
  20
148.22113
  0
VERTEX
  5
956
  8
Layer_0
  10
228.57668
  20
150.15619
  0
SEQEND
  0
POLYLINE
  5
958
  8
Layer_0
  62
3
  66
1
  10
0
  20
0
  30
0
  0
VERTEX
  5
958
  8
Layer_0
  10
121.25175
  20
152.7663
  0
VERTEX
  5
959
  8
Layer_0
  10
123.12675
  20
152.7663
  0
VERTEX
  5
95a
  8
Layer_0
  10
123.33695
  20
153.39618
  0
VERTEX
  5
95b
  8
Layer_0
  10
118.49174
  20
153.39618
  0
VERTEX
  5
95c
  8
Layer_0
  10
118.70194
  20
152.7663
  0
VERTEX
  5
95d
  8
Layer_0
  10
120.57694
  20
152.7663
  0
VERTEX
  5
95e
  8
Layer_0
  10
120.57694
  20
148.22113
  0
VERTEX
  5
95f
  8
Layer_0
  10
121.25175
  20
148.22113
  0
VERTEX
  5
960
  8
Layer_0
  10
121.25175
  20
152.7663
  0
SEQEND
  0
POLYLINE
  5
962
  8
Layer_0
  62
3
  66
1
  10
0
  20
0
  30
0
  0
VERTEX
  5
962
  8
Layer_0
  10
144.89359
  20
148.09442
  0
VERTEX
  5
963
  8
Layer_0
  10
145.09744
  20
148.11884
  42
0.36902777
  0
VERTEX
  5
964
  8
Layer_0
  10
146.58304
  20
149.74115
  0
VERTEX
  5
965
  8
Layer_0
  10
146.59183
  20
149.9538
  0
VERTEX
  5
966
  8
Layer_0
  10
146.59183
  20
153.39618
  0
VERTEX
  5
967
  8
Layer_0
  10
145.91678
  20
153.39618
  0
VERTEX
  5
968
  8
Layer_0
  10
145.91678
  20
149.98383
  42
-0.20376255
  0
VERTEX
  5
969
  8
Layer_0
  10
145.57938
  20
149.05658
  42
-0.23108338
  0
VERTEX
  5
96a
  8
Layer_0
  10
144.41068
  20
148.75214
  42
-0.34379396
  0
VERTEX
  5
96b
  8
Layer_0
  10
143.46414
  20
149.6994
  0
VERTEX
  5
96c
  8
Layer_0
  10
143.44168
  20
149.98383
  0
VERTEX
  5
96d
  8
Layer_0
  10
143.44168
  20
153.39618
  0
VERTEX
  5
96e
  8
Layer_0
  10
142.76688
  20
153.39618
  0
VERTEX
  5
96f
  8
Layer_0
  10
142.76688
  20
149.9538
  42
0.26974485
  0
VERTEX
  5
970
  8
Layer_0
  10
143.56009
  20
148.37054
  42
0.15530055
  0
VERTEX
  5
971
  8
Layer_0
  10
144.89359
  20
148.09442
  0
SEQEND
  0
POLYLINE
  5
973
  8
Layer_0
  62
3
  66
1
  10
0
  20
0
  30
0
  0
VERTEX
  5
973
  8
Layer_0
  10
151.00076
  20
148.85126
  0
VERTEX
  5
974
  8
Layer_0
  10
148.60086
  20
148.85126
  0
VERTEX
  5
975
  8
Layer_0
  10
148.60086
  20
153.39618
  0
VERTEX
  5
976
  8
Layer_0
  10
147.92581
  20
153.39618
  0
VERTEX
  5
977
  8
Layer_0
  10
147.92581
  20
148.22113
  0
VERTEX
  5
978
  8
Layer_0
  10
151.21072
  20
148.22113
  0
VERTEX
  5
979
  8
Layer_0
  10
151.00076
  20
148.85126
  0
SEQEND
  0
POLYLINE
  5
97b
  8
Layer_0
  62
3
  66
1
  10
0
  20
0
  30
0
  0
VERTEX
  5
97b
  8
Layer_0
  10
255.43018
  20
149.48871
  0
VERTEX
  5
97c
  8
Layer_0
  10
257.74756
  20
149.48871
  0
VERTEX
  5
97d
  8
Layer_0
  10
258.25
  20
148.22113
  0
VERTEX
  5
97e
  8
Layer_0
  10
258.99268
  20
148.22113
  0
VERTEX
  5
97f
  8
Layer_0
  10
256.81763
  20
153.39618
  0
VERTEX
  5
980
  8
Layer_0
  10
256.38257
  20
153.39618
  0
VERTEX
  5
981
  8
Layer_0
  10
254.20752
  20
148.22113
  0
VERTEX
  5
982
  8
Layer_0
  10
254.92017
  20
148.22113
  0
VERTEX
  5
983
  8
Layer_0
  10
255.43018
  20
149.48871
  0
SEQEND
  0
POLYLINE
  5
985
  8
Layer_0
  62
3
  66
1
  10
0
  20
0
  30
0
  0
VERTEX
  5
985
  8
Layer_0
  10
152.79251
  20
149.48871
  0
VERTEX
  5
986
  8
Layer_0
  10
155.11014
  20
149.48871
  0
VERTEX
  5
987
  8
Layer_0
  10
155.61258
  20
148.22113
  0
VERTEX
  5
988
  8
Layer_0
  10
156.35501
  20
148.22113
  0
VERTEX
  5
989
  8
Layer_0
  10
154.18021
  20
153.39618
  0
VERTEX
  5
98a
  8
Layer_0
  10
153.74515
  20
153.39618
  0
VERTEX
  5
98b
  8
Layer_0
  10
151.5701
  20
148.22113
  0
VERTEX
  5
98c
  8
Layer_0
  10
152.2825
  20
148.22113
  0
VERTEX
  5
98d
  8
Layer_0
  10
152.79251
  20
149.48871
  0
SEQEND
  0
POLYLINE
  5
98f
  8
Layer_0
  62
3
  66
1
  10
0
  20
0
  30
0
  0
VERTEX
  5
98f
  8
Layer_0
  10
290.12939
  20
149.48871
  0
VERTEX
  5
990
  8
Layer_0
  10
292.44678
  20
149.48871
  0
VERTEX
  5
991
  8
Layer_0
  10
292.94922
  20
148.22113
  0
VERTEX
  5
992
  8
Layer_0
  10
293.69189
  20
148.22113
  0
VERTEX
  5
993
  8
Layer_0
  10
291.51685
  20
153.39618
  0
VERTEX
  5
994
  8
Layer_0
  10
291.08179
  20
153.39618
  0
VERTEX
  5
995
  8
Layer_0
  10
288.90674
  20
148.22113
  0
VERTEX
  5
996
  8
Layer_0
  10
289.61938
  20
148.22113
  0
VERTEX
  5
997
  8
Layer_0
  10
290.12939
  20
149.48871
  0
SEQEND
  0
POLYLINE
  5
999
  8
Layer_0
  62
3
  66
1
  10
0
  20
0
  30
0
  0
VERTEX
  5
999
  8
Layer_0
  10
157.82474
  20
150.41132
  0
VERTEX
  5
99a
  8
Layer_0
  10
157.98953
  20
150.41132
  0
VERTEX
  5
99b
  8
Layer_0
  10
159.91727
  20
148.22113
  0
VERTEX
  5
99c
  8
Layer_0
  10
160.79471
  20
148.22113
  0
VERTEX
  5
99d
  8
Layer_0
  10
158.80716
  20
150.41864
  0
VERTEX
  5
99e
  8
Layer_0
  10
159.1553
  20
150.46161
  42
0.19775326
  0
VERTEX
  5
99f
  8
Layer_0
  10
160.15115
  20
151.06586
  42
0.36709611
  0
VERTEX
  5
9a0
  8
Layer_0
  10
159.93118
  20
153.00629
  42
0.17602319
  0
VERTEX
  5
9a1
  8
Layer_0
  10
158.64969
  20
153.39618
  0
VERTEX
  5
9a2
  8
Layer_0
  10
157.14969
  20
153.39618
  0
VERTEX
  5
9a3
  8
Layer_0
  10
157.14969
  20
148.22113
  0
VERTEX
  5
9a4
  8
Layer_0
  10
157.82474
  20
148.22113
  0
VERTEX
  5
9a5
  8
Layer_0
  10
157.82474
  20
150.41132
  0
SEQEND
  0
POLYLINE
  5
9a7
  8
Layer_0
  62
3
  66
1
  10
0
  20
0
  30
0
  0
VERTEX
  5
9a7
  8
Layer_0
  10
251.82349
  20
150.31366
  0
VERTEX
  5
9a8
  8
Layer_0
  10
253.20361
  20
148.22113
  0
VERTEX
  5
9a9
  8
Layer_0
  10
253.99854
  20
148.22113
  0
VERTEX
  5
9aa
  8
Layer_0
  10
252.25098
  20
150.86884
  0
VERTEX
  5
9ab
  8
Layer_0
  10
253.90845
  20
153.39618
  0
VERTEX
  5
9ac
  8
Layer_0
  10
253.14355
  20
153.39618
  0
VERTEX
  5
9ad
  8
Layer_0
  10
251.86865
  20
151.43866
  0
VERTEX
  5
9ae
  8
Layer_0
  10
250.57861
  20
153.39618
  0
VERTEX
  5
9af
  8
Layer_0
  10
249.78345
  20
153.39618
  0
VERTEX
  5
9b0
  8
Layer_0
  10
251.44092
  20
150.88373
  0
VERTEX
  5
9b1
  8
Layer_0
  10
249.6936
  20
148.22113
  0
VERTEX
  5
9b2
  8
Layer_0
  10
250.4585
  20
148.22113
  0
VERTEX
  5
9b3
  8
Layer_0
  10
251.82349
  20
150.31366
  0
SEQEND
  0
POLYLINE
  5
9b5
  8
Layer_0
  62
3
  66
1
  10
0
  20
0
  30
0
  0
VERTEX
  5
9b5
  8
Layer_0
  10
288.3374
  20
148.85126
  0
VERTEX
  5
9b6
  8
Layer_0
  10
285.9375
  20
148.85126
  0
VERTEX
  5
9b7
  8
Layer_0
  10
285.9375
  20
153.39618
  0
VERTEX
  5
9b8
  8
Layer_0
  10
285.26245
  20
153.39618
  0
VERTEX
  5
9b9
  8
Layer_0
  10
285.26245
  20
148.22113
  0
VERTEX
  5
9ba
  8
Layer_0
  10
288.54761
  20
148.22113
  0
VERTEX
  5
9bb
  8
Layer_0
  10
288.3374
  20
148.85126
  0
SEQEND
  0
POLYLINE
  5
9bd
  8
Layer_0
  62
3
  66
1
  10
0
  20
0
  30
0
  0
VERTEX
  5
9bd
  8
Layer_0
  10
192.17458
  20
149.48871
  0
VERTEX
  5
9be
  8
Layer_0
  10
194.4922
  20
149.48871
  0
VERTEX
  5
9bf
  8
Layer_0
  10
194.99464
  20
148.22113
  0
VERTEX
  5
9c0
  8
Layer_0
  10
195.73708
  20
148.22113
  0
VERTEX
  5
9c1
  8
Layer_0
  10
193.56203
  20
153.39618
  0
VERTEX
  5
9c2
  8
Layer_0
  10
193.12721
  20
153.39618
  0
VERTEX
  5
9c3
  8
Layer_0
  10
190.95216
  20
148.22113
  0
VERTEX
  5
9c4
  8
Layer_0
  10
191.66457
  20
148.22113
  0
VERTEX
  5
9c5
  8
Layer_0
  10
192.17458
  20
149.48871
  0
SEQEND
  0
POLYLINE
  5
9c7
  8
Layer_0
  62
3
  66
1
  10
0
  20
0
  30
0
  0
VERTEX
  5
9c7
  8
Layer_0
  10
272.49854
  20
149.48871
  0
VERTEX
  5
9c8
  8
Layer_0
  10
274.81592
  20
149.48871
  0
VERTEX
  5
9c9
  8
Layer_0
  10
275.31836
  20
148.22113
  0
VERTEX
  5
9ca
  8
Layer_0
  10
276.06104
  20
148.22113
  0
VERTEX
  5
9cb
  8
Layer_0
  10
273.88599
  20
153.39618
  0
VERTEX
  5
9cc
  8
Layer_0
  10
273.45093
  20
153.39618
  0
VERTEX
  5
9cd
  8
Layer_0
  10
271.27588
  20
148.22113
  0
VERTEX
  5
9ce
  8
Layer_0
  10
271.98853
  20
148.22113
  0
VERTEX
  5
9cf
  8
Layer_0
  10
272.49854
  20
149.48871
  0
SEQEND
  0
POLYLINE
  5
9d1
  8
Layer_0
  62
3
  66
1
  10
0
  20
0
  30
0
  0
VERTEX
  5
9d1
  8
Layer_0
  10
197.20656
  20
152.17377
  0
VERTEX
  5
9d2
  8
Layer_0
  10
200.04176
  20
148.22113
  0
VERTEX
  5
9d3
  8
Layer_0
  10
200.42409
  20
148.22113
  0
VERTEX
  5
9d4
  8
Layer_0
  10
200.42409
  20
153.39618
  0
VERTEX
  5
9d5
  8
Layer_0
  10
199.74904
  20
153.39618
  0
VERTEX
  5
9d6
  8
Layer_0
  10
199.74904
  20
149.70624
  0
VERTEX
  5
9d7
  8
Layer_0
  10
197.10158
  20
153.39618
  0
VERTEX
  5
9d8
  8
Layer_0
  10
196.53175
  20
153.39618
  0
VERTEX
  5
9d9
  8
Layer_0
  10
196.53175
  20
148.22113
  0
VERTEX
  5
9da
  8
Layer_0
  10
197.20656
  20
148.22113
  0
VERTEX
  5
9db
  8
Layer_0
  10
197.20656
  20
152.17377
  0
SEQEND
  0
POLYLINE
  5
9dd
  8
Layer_0
  62
3
  66
1
  10
0
  20
0
  30
0
  0
VERTEX
  5
9dd
  8
Layer_0
  10
202.47903
  20
150.15619
  42
0.017640498
  0
VERTEX
  5
9de
  8
Layer_0
  10
203.45216
  20
150.16327
  42
0.26224292
  0
VERTEX
  5
9df
  8
Layer_0
  10
204.85451
  20
150.95575
  42
0.29846302
  0
VERTEX
  5
9e0
  8
Layer_0
  10
204.67654
  20
152.86591
  42
0.21033874
  0
VERTEX
  5
9e1
  8
Layer_0
  10
203.23634
  20
153.39618
  0
VERTEX
  5
9e2
  8
Layer_0
  10
201.80397
  20
153.39618
  0
VERTEX
  5
9e3
  8
Layer_0
  10
201.80397
  20
148.22113
  0
VERTEX
  5
9e4
  8
Layer_0
  10
202.47903
  20
148.22113
  0
VERTEX
  5
9e5
  8
Layer_0
  10
202.47903
  20
150.15619
  0
SEQEND
  0
POLYLINE
  5
9e7
  8
Layer_0
  62
3
  66
1
  10
0
  20
0
  30
0
  0
VERTEX
  5
9e7
  8
Layer_0
  10
249.09375
  20
148.85126
  0
VERTEX
  5
9e8
  8
Layer_0
  10
246.7688
  20
148.85126
  0
VERTEX
  5
9e9
  8
Layer_0
  10
246.7688
  20
150.60614
  0
VERTEX
  5
9ea
  8
Layer_0
  10
248.82373
  20
150.60614
  0
VERTEX
  5
9eb
  8
Layer_0
  10
248.82373
  20
151.23627
  0
VERTEX
  5
9ec
  8
Layer_0
  10
246.7688
  20
151.23627
  0
VERTEX
  5
9ed
  8
Layer_0
  10
246.7688
  20
152.7663
  0
VERTEX
  5
9ee
  8
Layer_0
  10
249.06372
  20
152.7663
  0
VERTEX
  5
9ef
  8
Layer_0
  10
249.27368
  20
153.39618
  0
VERTEX
  5
9f0
  8
Layer_0
  10
246.09375
  20
153.39618
  0
VERTEX
  5
9f1
  8
Layer_0
  10
246.09375
  20
148.22113
  0
VERTEX
  5
9f2
  8
Layer_0
  10
249.30371
  20
148.22113
  0
VERTEX
  5
9f3
  8
Layer_0
  10
249.09375
  20
148.85126
  0
SEQEND
  0
POLYLINE
  5
9f5
  8
Layer_0
  62
3
  66
1
  10
0
  20
0
  30
0
  0
VERTEX
  5
9f5
  8
Layer_0
  10
284.07764
  20
148.85126
  0
VERTEX
  5
9f6
  8
Layer_0
  10
281.75269
  20
148.85126
  0
VERTEX
  5
9f7
  8
Layer_0
  10
281.75269
  20
150.60614
  0
VERTEX
  5
9f8
  8
Layer_0
  10
283.80786
  20
150.60614
  0
VERTEX
  5
9f9
  8
Layer_0
  10
283.80786
  20
151.23627
  0
VERTEX
  5
9fa
  8
Layer_0
  10
281.75269
  20
151.23627
  0
VERTEX
  5
9fb
  8
Layer_0
  10
281.75269
  20
152.7663
  0
VERTEX
  5
9fc
  8
Layer_0
  10
284.04785
  20
152.7663
  0
VERTEX
  5
9fd
  8
Layer_0
  10
284.25781
  20
153.39618
  0
VERTEX
  5
9fe
  8
Layer_0
  10
281.07764
  20
153.39618
  0
VERTEX
  5
9ff
  8
Layer_0
  10
281.07764
  20
148.22113
  0
VERTEX
  5
a00
  8
Layer_0
  10
284.28784
  20
148.22113
  0
VERTEX
  5
a01
  8
Layer_0
  10
284.07764
  20
148.85126
  0
SEQEND
  0
POLYLINE
  5
a03
  8
Layer_0
  62
3
  66
1
  10
0
  20
0
  30
0
  0
VERTEX
  5
a03
  8
Layer_0
  10
206.31911
  20
149.48871
  0
VERTEX
  5
a04
  8
Layer_0
  10
208.63673
  20
149.48871
  0
VERTEX
  5
a05
  8
Layer_0
  10
209.13918
  20
148.22113
  0
VERTEX
  5
a06
  8
Layer_0
  10
209.88161
  20
148.22113
  0
VERTEX
  5
a07
  8
Layer_0
  10
207.70654
  20
153.39618
  0
VERTEX
  5
a08
  8
Layer_0
  10
207.27174
  20
153.39618
  0
VERTEX
  5
a09
  8
Layer_0
  10
205.09669
  20
148.22113
  0
VERTEX
  5
a0a
  8
Layer_0
  10
205.8091
  20
148.22113
  0
VERTEX
  5
a0b
  8
Layer_0
  10
206.31911
  20
149.48871
  0
SEQEND
  0
POLYLINE
  5
a0d
  8
Layer_0
  62
3
  66
1
  10
0
  20
0
  30
0
  0
VERTEX
  5
a0d
  8
Layer_0
  10
242.29932
  20
150.41132
  0
VERTEX
  5
a0e
  8
Layer_0
  10
242.46436
  20
150.41132
  0
VERTEX
  5
a0f
  8
Layer_0
  10
244.39185
  20
148.22113
  0
VERTEX
  5
a10
  8
Layer_0
  10
245.26929
  20
148.22113
  0
VERTEX
  5
a11
  8
Layer_0
  10
243.28174
  20
150.41864
  0
VERTEX
  5
a12
  8
Layer_0
  10
243.62988
  20
150.46161
  42
0.19775957
  0
VERTEX
  5
a13
  8
Layer_0
  10
244.62573
  20
151.06586
  42
0.36710055
  0
VERTEX
  5
a14
  8
Layer_0
  10
244.40576
  20
153.00629
  42
0.17602693
  0
VERTEX
  5
a15
  8
Layer_0
  10
243.12427
  20
153.39618
  0
VERTEX
  5
a16
  8
Layer_0
  10
241.62427
  20
153.39618
  0
VERTEX
  5
a17
  8
Layer_0
  10
241.62427
  20
148.22113
  0
VERTEX
  5
a18
  8
Layer_0
  10
242.29932
  20
148.22113
  0
VERTEX
  5
a19
  8
Layer_0
  10
242.29932
  20
150.41132
  0
SEQEND
  0
POLYLINE
  5
a1b
  8
Layer_0
  62
3
  66
1
  10
0
  20
0
  30
0
  0
VERTEX
  5
a1b
  8
Layer_0
  10
117.71244
  20
153.39618
  0
VERTEX
  5
a1c
  8
Layer_0
  10
117.03764
  20
153.39618
  0
VERTEX
  5
a1d
  8
Layer_0
  10
117.03764
  20
148.22113
  0
VERTEX
  5
a1e
  8
Layer_0
  10
117.71244
  20
148.22113
  0
VERTEX
  5
a1f
  8
Layer_0
  10
117.71244
  20
153.39618
  0
SEQEND
  0
POLYLINE
  5
a21
  8
Layer_0
  62
3
  66
1
  10
0
  20
0
  30
0
  0
VERTEX
  5
a21
  8
Layer_0
  10
277.53052
  20
150.15619
  42
0.017640833
  0
VERTEX
  5
a22
  8
Layer_0
  10
278.50366
  20
150.16327
  42
0.26228274
  0
VERTEX
  5
a23
  8
Layer_0
  10
279.90601
  20
150.95575
  42
0.29852274
  0
VERTEX
  5
a24
  8
Layer_0
  10
279.72803
  20
152.86591
  42
0.21034626
  0
VERTEX
  5
a25
  8
Layer_0
  10
278.28809
  20
153.39618
  0
VERTEX
  5
a26
  8
Layer_0
  10
276.85547
  20
153.39618
  0
VERTEX
  5
a27
  8
Layer_0
  10
276.85547
  20
148.22113
  0
VERTEX
  5
a28
  8
Layer_0
  10
277.53052
  20
148.22113
  0
VERTEX
  5
a29
  8
Layer_0
  10
277.53052
  20
150.15619
  0
SEQEND
  0
POLYLINE
  5
a2b
  8
Layer_0
  62
3
  66
1
  10
0
  20
0
  30
0
  0
VERTEX
  5
a2b
  8
Layer_0
  10
224.35425
  20
150.15619
  42
0.017640833
  0
VERTEX
  5
a2c
  8
Layer_0
  10
225.32739
  20
150.16327
  42
0.26218618
  0
VERTEX
  5
a2d
  8
Layer_0
  10
226.72998
  20
150.95575
  42
0.29826304
  0
VERTEX
  5
a2e
  8
Layer_0
  10
226.55202
  20
152.86591
  42
0.21030818
  0
VERTEX
  5
a2f
  8
Layer_0
  10
225.11182
  20
153.39618
  0
VERTEX
  5
a30
  8
Layer_0
  10
223.6792
  20
153.39618
  0
VERTEX
  5
a31
  8
Layer_0
  10
223.6792
  20
148.22113
  0
VERTEX
  5
a32
  8
Layer_0
  10
224.35425
  20
148.22113
  0
VERTEX
  5
a33
  8
Layer_0
  10
224.35425
  20
150.15619
  0
SEQEND
  0
POLYLINE
  5
a35
  8
Layer_0
  62
3
  66
1
  10
0
  20
0
  30
0
  0
VERTEX
  5
a35
  8
Layer_0
  10
222.30005
  20
153.39618
  0
VERTEX
  5
a36
  8
Layer_0
  10
221.625
  20
153.39618
  0
VERTEX
  5
a37
  8
Layer_0
  10
221.625
  20
148.22113
  0
VERTEX
  5
a38
  8
Layer_0
  10
222.30005
  20
148.22113
  0
VERTEX
  5
a39
  8
Layer_0
  10
222.30005
  20
153.39618
  0
SEQEND
  0
POLYLINE
  5
a3b
  8
Layer_0
  62
3
  66
1
  10
0
  20
0
  30
0
  0
VERTEX
  5
a3b
  8
Layer_0
  10
224.35425
  20
150.77118
  0
VERTEX
  5
a3c
  8
Layer_0
  10
224.35425
  20
152.78119
  42
-0.034413685
  0
VERTEX
  5
a3d
  8
Layer_0
  10
225.33327
  20
152.76385
  42
-0.27319074
  0
VERTEX
  5
a3e
  8
Layer_0
  10
226.14284
  20
152.20844
  42
-0.30095197
  0
VERTEX
  5
a3f
  8
Layer_0
  10
225.92358
  20
151.04877
  42
-0.18982664
  0
VERTEX
  5
a40
  8
Layer_0
  10
225.09692
  20
150.77118
  0
VERTEX
  5
a41
  8
Layer_0
  10
224.35425
  20
150.77118
  0
SEQEND
  0
POLYLINE
  5
a43
  8
Layer_0
  62
3
  66
1
  10
0
  20
0
  30
0
  0
VERTEX
  5
a43
  8
Layer_0
  10
228.57668
  20
150.77118
  0
VERTEX
  5
a44
  8
Layer_0
  10
228.57668
  20
152.78119
  42
-0.034469168
  0
VERTEX
  5
a45
  8
Layer_0
  10
229.55544
  20
152.76385
  42
-0.27319035
  0
VERTEX
  5
a46
  8
Layer_0
  10
230.36501
  20
152.20844
  42
-0.30077236
  0
VERTEX
  5
a47
  8
Layer_0
  10
230.14601
  20
151.04877
  42
-0.18965992
  0
VERTEX
  5
a48
  8
Layer_0
  10
229.31911
  20
150.77118
  0
VERTEX
  5
a49
  8
Layer_0
  10
228.57668
  20
150.77118
  0
SEQEND
  0
POLYLINE
  5
a4b
  8
Layer_0
  62
3
  66
1
  10
0
  20
0
  30
0
  0
VERTEX
  5
a4b
  8
Layer_0
  10
277.53052
  20
150.77118
  0
VERTEX
  5
a4c
  8
Layer_0
  10
277.53052
  20
152.78119
  42
-0.034469168
  0
VERTEX
  5
a4d
  8
Layer_0
  10
278.50928
  20
152.76385
  42
-0.27294176
  0
VERTEX
  5
a4e
  8
Layer_0
  10
279.31909
  20
152.20844
  42
-0.30088384
  0
VERTEX
  5
a4f
  8
Layer_0
  10
279.09985
  20
151.04877
  42
-0.18966769
  0
VERTEX
  5
a50
  8
Layer_0
  10
278.27295
  20
150.77118
  0
VERTEX
  5
a51
  8
Layer_0
  10
277.53052
  20
150.77118
  0
SEQEND
  0
POLYLINE
  5
a53
  8
Layer_0
  62
3
  66
1
  10
0
  20
0
  30
0
  0
VERTEX
  5
a53
  8
Layer_0
  10
242.29932
  20
150.98114
  0
VERTEX
  5
a54
  8
Layer_0
  10
242.29932
  20
152.78119
  42
-0.032823335
  0
VERTEX
  5
a55
  8
Layer_0
  10
243.33203
  20
152.76556
  42
-0.26955959
  0
VERTEX
  5
a56
  8
Layer_0
  10
244.09302
  20
152.26874
  42
-0.39821986
  0
VERTEX
  5
a57
  8
Layer_0
  10
243.69971
  20
151.12689
  42
-0.12154989
  0
VERTEX
  5
a58
  8
Layer_0
  10
243.06421
  20
150.98114
  0
VERTEX
  5
a59
  8
Layer_0
  10
242.29932
  20
150.98114
  0
SEQEND
  0
POLYLINE
  5
a5b
  8
Layer_0
  62
3
  66
1
  10
0
  20
0
  30
0
  0
VERTEX
  5
a5b
  8
Layer_0
  10
202.47903
  20
150.77118
  0
VERTEX
  5
a5c
  8
Layer_0
  10
202.47903
  20
152.78119
  42
-0.034469468
  0
VERTEX
  5
a5d
  8
Layer_0
  10
203.45779
  20
152.76385
  42
-0.27319074
  0
VERTEX
  5
a5e
  8
Layer_0
  10
204.26736
  20
152.20844
  42
-0.30076789
  0
VERTEX
  5
a5f
  8
Layer_0
  10
204.04836
  20
151.04877
  42
-0.18966347
  0
VERTEX
  5
a60
  8
Layer_0
  10
203.22145
  20
150.77118
  0
VERTEX
  5
a61
  8
Layer_0
  10
202.47903
  20
150.77118
  0
SEQEND
  0
POLYLINE
  5
a63
  8
Layer_0
  62
3
  66
1
  10
0
  20
0
  30
0
  0
VERTEX
  5
a63
  8
Layer_0
  10
157.82474
  20
150.98114
  0
VERTEX
  5
a64
  8
Layer_0
  10
157.82474
  20
152.78119
  42
-0.032823447
  0
VERTEX
  5
a65
  8
Layer_0
  10
158.85745
  20
152.76556
  42
-0.26955347
  0
VERTEX
  5
a66
  8
Layer_0
  10
159.61844
  20
152.26874
  42
-0.3981727
  0
VERTEX
  5
a67
  8
Layer_0
  10
159.22513
  20
151.12689
  42
-0.12147167
  0
VERTEX
  5
a68
  8
Layer_0
  10
158.58963
  20
150.98114
  0
VERTEX
  5
a69
  8
Layer_0
  10
157.82474
  20
150.98114
  0
SEQEND
  0
POLYLINE
  5
a6b
  8
Layer_0
  62
3
  66
1
  10
0
  20
0
  30
0
  0
VERTEX
  5
a6b
  8
Layer_0
  10
272.74585
  20
150.1037
  0
VERTEX
  5
a6c
  8
Layer_0
  10
273.66089
  20
152.37616
  0
VERTEX
  5
a6d
  8
Layer_0
  10
274.56836
  20
150.1037
  0
VERTEX
  5
a6e
  8
Layer_0
  10
272.74585
  20
150.1037
  0
SEQEND
  0
POLYLINE
  5
a70
  8
Layer_0
  62
3
  66
1
  10
0
  20
0
  30
0
  0
VERTEX
  5
a70
  8
Layer_0
  10
192.42213
  20
150.1037
  0
VERTEX
  5
a71
  8
Layer_0
  10
193.33717
  20
152.37616
  0
VERTEX
  5
a72
  8
Layer_0
  10
194.24464
  20
150.1037
  0
VERTEX
  5
a73
  8
Layer_0
  10
192.42213
  20
150.1037
  0
SEQEND
  0
POLYLINE
  5
a75
  8
Layer_0
  62
3
  66
1
  10
0
  20
0
  30
0
  0
VERTEX
  5
a75
  8
Layer_0
  10
153.04007
  20
150.1037
  0
VERTEX
  5
a76
  8
Layer_0
  10
153.95511
  20
152.37616
  0
VERTEX
  5
a77
  8
Layer_0
  10
154.86258
  20
150.1037
  0
VERTEX
  5
a78
  8
Layer_0
  10
153.04007
  20
150.1037
  0
SEQEND
  0
POLYLINE
  5
a7a
  8
Layer_0
  62
3
  66
1
  10
0
  20
0
  30
0
  0
VERTEX
  5
a7a
  8
Layer_0
  10
290.37671
  20
150.1037
  0
VERTEX
  5
a7b
  8
Layer_0
  10
291.29175
  20
152.37616
  0
VERTEX
  5
a7c
  8
Layer_0
  10
292.19922
  20
150.1037
  0
VERTEX
  5
a7d
  8
Layer_0
  10
290.37671
  20
150.1037
  0
SEQEND
  0
POLYLINE
  5
a7f
  8
Layer_0
  62
3
  66
1
  10
0
  20
0
  30
0
  0
VERTEX
  5
a7f
  8
Layer_0
  10
255.67749
  20
150.1037
  0
VERTEX
  5
a80
  8
Layer_0
  10
256.59253
  20
152.37616
  0
VERTEX
  5
a81
  8
Layer_0
  10
257.5
  20
150.1037
  0
VERTEX
  5
a82
  8
Layer_0
  10
255.67749
  20
150.1037
  0
SEQEND
  0
POLYLINE
  5
a84
  8
Layer_0
  62
3
  66
1
  10
0
  20
0
  30
0
  0
VERTEX
  5
a84
  8
Layer_0
  10
206.56667
  20
150.1037
  0
VERTEX
  5
a85
  8
Layer_0
  10
207.4817
  20
152.37616
  0
VERTEX
  5
a86
  8
Layer_0
  10
208.38918
  20
150.1037
  0
VERTEX
  5
a87
  8
Layer_0
  10
206.56667
  20
150.1037
  0
SEQEND
  0
POLYLINE
  5
a89
  8
Layer_1
  62
5
  66
1
  10
0
  20
0
  30
0
  0
VERTEX
  5
a89
  8
Layer_1
  10
232.65997
  20
106.83978
  0
VERTEX
  5
a8a
  8
Layer_1
  10
232.60387
  20
107.45459
  0
VERTEX
  5
a8b
  8
Layer_1
  10
232.59337
  20
107.55673
  0
VERTEX
  5
a8c
  8
Layer_1
  10
232.52246
  20
108.17133
  0
VERTEX
  5
a8d
  8
Layer_1
  10
232.50906
  20
108.27548
  0
VERTEX
  5
a8e
  8
Layer_1
  10
232.42287
  20
108.88971
  0
VERTEX
  5
a8f
  8
Layer_1
  10
232.40736
  20
108.99219
  0
VERTEX
  5
a90
  8
Layer_1
  10
232.30614
  20
109.60553
  0
VERTEX
  5
a91
  8
Layer_1
  10
232.28773
  20
109.70834
  0
VERTEX
  5
a92
  8
Layer_1
  10
232.17122
  20
110.3208
  0
VERTEX
  5
a93
  8
Layer_1
  10
232.15051
  20
110.42313
  0
VERTEX
  5
a94
  8
Layer_1
  10
232.01872
  20
111.03436
  0
VERTEX
  5
a95
  8
Layer_1
  10
231.99503
  20
111.13751
  0
VERTEX
  5
a96
  8
Layer_1
  10
231.84775
  20
111.74713
  0
VERTEX
  5
a97
  8
Layer_1
  10
231.82205
  20
111.84882
  0
VERTEX
  5
a98
  8
Layer_1
  10
231.65932
  20
112.45691
  0
VERTEX
  5
a99
  8
Layer_1
  10
231.63042
  20
112.55963
  0
VERTEX
  5
a9a
  8
Layer_1
  10
231.45195
  20
113.16547
  0
VERTEX
  5
a9b
  8
Layer_1
  10
231.42125
  20
113.26526
  0
VERTEX
  5
a9c
  8
Layer_1
  10
231.22731
  20
113.86902
  0
VERTEX
  5
a9d
  8
Layer_1
  10
231.19321
  20
113.97089
  0
VERTEX
  5
a9e
  8
Layer_1
  10
230.98337
  20
114.5719
  0
VERTEX
  5
a9f
  8
Layer_1
  10
230.94757
  20
114.67053
  0
VERTEX
  5
aa0
  8
Layer_1
  10
230.72205
  20
115.26904
  0
VERTEX
  5
aa1
  8
Layer_1
  10
230.68254
  20
115.37006
  0
VERTEX
  5
aa2
  8
Layer_1
  10
230.4409
  20
115.96521
  0
VERTEX
  5
aa3
  8
Layer_1
  10
230.4005
  20
116.06131
  0
VERTEX
  5
aa4
  8
Layer_1
  10
230.1432
  20
116.65335
  0
VERTEX
  5
aa5
  8
Layer_1
  10
230.0988
  20
116.75204
  0
VERTEX
  5
aa6
  8
Layer_1
  10
229.82518
  20
117.34055
  0
VERTEX
  5
aa7
  8
Layer_1
  10
229.77878
  20
117.43695
  0
VERTEX
  5
aa8
  8
Layer_1
  10
229.48904
  20
118.02142
  0
VERTEX
  5
aa9
  8
Layer_1
  10
229.44075
  20
118.11621
  0
VERTEX
  5
aaa
  8
Layer_1
  10
229.14308
  20
118.68103
  0
VERTEX
  5
aab
  8
Layer_1
  10
229.09198
  20
118.77475
  0
VERTEX
  5
aac
  8
Layer_1
  10
228.78111
  20
119.33054
  0
VERTEX
  5
aad
  8
Layer_1
  10
228.72841
  20
119.42242
  0
VERTEX
  5
aae
  8
Layer_1
  10
228.40459
  20
119.9693
  0
VERTEX
  5
aaf
  8
Layer_1
  10
228.34959
  20
120.05969
  0
VERTEX
  5
ab0
  8
Layer_1
  10
228.013
  20
120.59729
  0
VERTEX
  5
ab1
  8
Layer_1
  10
227.9557
  20
120.68619
  0
VERTEX
  5
ab2
  8
Layer_1
  10
227.60655
  20
121.21439
  0
VERTEX
  5
ab3
  8
Layer_1
  10
227.54774
  20
121.30099
  0
VERTEX
  5
ab4
  8
Layer_1
  10
227.18645
  20
121.81961
  0
VERTEX
  5
ab5
  8
Layer_1
  10
227.12434
  20
121.9064
  0
VERTEX
  5
ab6
  8
Layer_1
  10
226.75072
  20
122.41519
  0
VERTEX
  5
ab7
  8
Layer_1
  10
226.68842
  20
122.49799
  0
VERTEX
  5
ab8
  8
Layer_1
  10
226.30307
  20
122.99695
  0
VERTEX
  5
ab9
  8
Layer_1
  10
226.23798
  20
123.07895
  0
VERTEX
  5
aba
  8
Layer_1
  10
225.84113
  20
123.56766
  0
VERTEX
  5
abb
  8
Layer_1
  10
225.77393
  20
123.64835
  0
VERTEX
  5
abc
  8
Layer_1
  10
225.36557
  20
124.1268
  0
VERTEX
  5
abd
  8
Layer_1
  10
225.29587
  20
124.2063
  0
VERTEX
  5
abe
  8
Layer_1
  10
224.87622
  20
124.67407
  0
VERTEX
  5
abf
  8
Layer_1
  10
224.80531
  20
124.75128
  0
VERTEX
  5
ac0
  8
Layer_1
  10
224.37457
  20
125.20837
  0
VERTEX
  5
ac1
  8
Layer_1
  10
224.30298
  20
125.28235
  0
VERTEX
  5
ac2
  8
Layer_1
  10
223.86179
  20
125.72858
  0
VERTEX
  5
ac3
  8
Layer_1
  10
223.78629
  20
125.8031
  0
VERTEX
  5
ac4
  8
Layer_1
  10
223.3342
  20
126.23822
  0
VERTEX
  5
ac5
  8
Layer_1
  10
223.2583
  20
126.3096
  0
VERTEX
  5
ac6
  8
Layer_1
  10
222.79597
  20
126.73343
  0
VERTEX
  5
ac7
  8
Layer_1
  10
222.71918
  20
126.80225
  0
VERTEX
  5
ac8
  8
Layer_1
  10
222.24681
  20
127.21478
  0
VERTEX
  5
ac9
  8
Layer_1
  10
222.16711
  20
127.28256
  0
VERTEX
  5
aca
  8
Layer_1
  10
221.68491
  20
127.68341
  0
VERTEX
  5
acb
  8
Layer_1
  10
221.60291
  20
127.74994
  0
VERTEX
  5
acc
  8
Layer_1
  10
221.11087
  20
128.13879
  0
VERTEX
  5
acd
  8
Layer_1
  10
221.02887
  20
128.20218
  0
VERTEX
  5
ace
  8
Layer_1
  10
220.52744
  20
128.57913
  0
VERTEX
  5
acf
  8
Layer_1
  10
220.44273
  20
128.64105
  0
VERTEX
  5
ad0
  8
Layer_1
  10
219.93188
  20
129.00586
  0
VERTEX
  5
ad1
  8
Layer_1
  10
219.84607
  20
129.06564
  0
VERTEX
  5
ad2
  8
Layer_1
  10
219.32643
  20
129.41794
  0
VERTEX
  5
ad3
  8
Layer_1
  10
219.23962
  20
129.47534
  0
VERTEX
  5
ad4
  8
Layer_1
  10
218.71098
  20
129.81525
  0
VERTEX
  5
ad5
  8
Layer_1
  10
218.62128
  20
129.87134
  0
VERTEX
  5
ad6
  8
Layer_1
  10
218.08406
  20
130.1983
  0
VERTEX
  5
ad7
  8
Layer_1
  10
217.99416
  20
130.25162
  0
VERTEX
  5
ad8
  8
Layer_1
  10
217.44836
  20
130.56583
  0
VERTEX
  5
ad9
  8
Layer_1
  10
217.35715
  20
130.61694
  0
VERTEX
  5
ada
  8
Layer_1
  10
216.80339
  20
130.91797
  0
VERTEX
  5
adb
  8
Layer_1
  10
216.70988
  20
130.96725
  0
VERTEX
  5
adc
  8
Layer_1
  10
216.14819
  20
131.25491
  0
VERTEX
  5
add
  8
Layer_1
  10
216.0545
  20
131.30139
  0
VERTEX
  5
ade
  8
Layer_1
  10
215.48505
  20
131.57568
  0
VERTEX
  5
adf
  8
Layer_1
  10
215.38925
  20
131.62039
  0
VERTEX
  5
ae0
  8
Layer_1
  10
214.81207
  20
131.88107
  0
VERTEX
  5
ae1
  8
Layer_1
  10
214.71497
  20
131.92358
  0
VERTEX
  5
ae2
  8
Layer_1
  10
214.13068
  20
132.17017
  0
VERTEX
  5
ae3
  8
Layer_1
  10
214.03278
  20
132.21014
  0
VERTEX
  5
ae4
  8
Layer_1
  10
213.44138
  20
132.44275
  0
VERTEX
  5
ae5
  8
Layer_1
  10
213.34216
  20
132.48026
  0
VERTEX
  5
ae6
  8
Layer_1
  10
212.74387
  20
132.69864
  0
VERTEX
  5
ae7
  8
Layer_1
  10
212.64465
  20
132.73364
  0
VERTEX
  5
ae8
  8
Layer_1
  10
212.03964
  20
132.93781
  0
VERTEX
  5
ae9
  8
Layer_1
  10
211.93736
  20
132.97089
  0
VERTEX
  5
aea
  8
Layer_1
  10
211.32756
  20
133.15979
  0
VERTEX
  5
aeb
  8
Layer_1
  10
211.22482
  20
133.19012
  0
VERTEX
  5
aec
  8
Layer_1
  10
210.61189
  20
133.36334
  0
VERTEX
  5
aed
  8
Layer_1
  10
210.51147
  20
133.39053
  0
VERTEX
  5
aee
  8
Layer_1
  10
209.89578
  20
133.54849
  0
VERTEX
  5
aef
  8
Layer_1
  10
209.79224
  20
133.57361
  0
VERTEX
  5
af0
  8
Layer_1
  10
209.17427
  20
133.71588
  0
VERTEX
  5
af1
  8
Layer_1
  10
209.07092
  20
133.73828
  0
VERTEX
  5
af2
  8
Layer_1
  10
208.45044
  20
133.86505
  0
VERTEX
  5
af3
  8
Layer_1
  10
208.34709
  20
133.88483
  0
VERTEX
  5
af4
  8
Layer_1
  10
207.72495
  20
133.99615
  0
VERTEX
  5
af5
  8
Layer_1
  10
207.61951
  20
134.01376
  0
VERTEX
  5
af6
  8
Layer_1
  10
206.99568
  20
134.10938
  0
VERTEX
  5
af7
  8
Layer_1
  10
206.89276
  20
134.12378
  0
VERTEX
  5
af8
  8
Layer_1
  10
206.26767
  20
134.20416
  0
VERTEX
  5
af9
  8
Layer_1
  10
206.16432
  20
134.21606
  0
VERTEX
  5
afa
  8
Layer_1
  10
205.53799
  20
134.28116
  0
VERTEX
  5
afb
  8
Layer_1
  10
205.43172
  20
134.29114
  0
VERTEX
  5
afc
  8
Layer_1
  10
204.80476
  20
134.34055
  0
VERTEX
  5
afd
  8
Layer_1
  10
204.70226
  20
134.34753
  0
VERTEX
  5
afe
  8
Layer_1
  10
204.07466
  20
134.38184
  0
VERTEX
  5
aff
  8
Layer_1
  10
203.96924
  20
134.38684
  0
VERTEX
  5
b00
  8
Layer_1
  10
203.34164
  20
134.40576
  0
VERTEX
  5
b01
  8
Layer_1
  10
203.23599
  20
134.40778
  0
VERTEX
  5
b02
  8
Layer_1
  10
202.6084
  20
134.41077
  0
VERTEX
  5
b03
  8
Layer_1
  10
202.50421
  20
134.40997
  0
VERTEX
  5
b04
  8
Layer_1
  10
201.87685
  20
134.39798
  0
VERTEX
  5
b05
  8
Layer_1
  10
201.77391
  20
134.39496
  0
VERTEX
  5
b06
  8
Layer_1
  10
201.14737
  20
134.36798
  0
VERTEX
  5
b07
  8
Layer_1
  10
201.0415
  20
134.362
  0
VERTEX
  5
b08
  8
Layer_1
  10
200.4158
  20
134.31949
  0
VERTEX
  5
b09
  8
Layer_1
  10
200.31287
  20
134.31149
  0
VERTEX
  5
b0a
  8
Layer_1
  10
199.68843
  20
134.254
  0
VERTEX
  5
b0b
  8
Layer_1
  10
199.58424
  20
134.2431
  0
VERTEX
  5
b0c
  8
Layer_1
  10
198.96124
  20
134.17041
  0
VERTEX
  5
b0d
  8
Layer_1
  10
198.85707
  20
134.1568
  0
VERTEX
  5
b0e
  8
Layer_1
  10
198.23596
  20
134.06873
  0
VERTEX
  5
b0f
  8
Layer_1
  10
198.13324
  20
134.05301
  0
VERTEX
  5
b10
  8
Layer_1
  10
197.51422
  20
133.94986
  0
VERTEX
  5
b11
  8
Layer_1
  10
197.41087
  20
133.93127
  0
VERTEX
  5
b12
  8
Layer_1
  10
196.79396
  20
133.81287
  0
VERTEX
  5
b13
  8
Layer_1
  10
196.69145
  20
133.79193
  0
VERTEX
  5
b14
  8
Layer_1
  10
196.07745
  20
133.65845
  0
VERTEX
  5
b15
  8
Layer_1
  10
195.97578
  20
133.63507
  0
VERTEX
  5
b16
  8
Layer_1
  10
195.36452
  20
133.48651
  0
VERTEX
  5
b17
  8
Layer_1
  10
195.26283
  20
133.46039
  0
VERTEX
  5
b18
  8
Layer_1
  10
194.65491
  20
133.29675
  0
VERTEX
  5
b19
  8
Layer_1
  10
194.55408
  20
133.26837
  0
VERTEX
  5
b1a
  8
Layer_1
  10
193.94949
  20
133.08972
  0
VERTEX
  5
b1b
  8
Layer_1
  10
193.84845
  20
133.05853
  0
VERTEX
  5
b1c
  8
Layer_1
  10
193.24785
  20
132.86487
  0
VERTEX
  5
b1d
  8
Layer_1
  10
193.14806
  20
132.83136
  0
VERTEX
  5
b1e
  8
Layer_1
  10
192.55142
  20
132.62262
  0
VERTEX
  5
b1f
  8
Layer_1
  10
192.45332
  20
132.58682
  0
VERTEX
  5
b20
  8
Layer_1
  10
191.86087
  20
132.36319
  0
VERTEX
  5
b21
  8
Layer_1
  10
191.76167
  20
132.32428
  0
VERTEX
  5
b22
  8
Layer_1
  10
191.17404
  20
132.0856
  0
VERTEX
  5
b23
  8
Layer_1
  10
191.07715
  20
132.04498
  0
VERTEX
  5
b24
  8
Layer_1
  10
190.49432
  20
131.79144
  0
VERTEX
  5
b25
  8
Layer_1
  10
190.39812
  20
131.74817
  0
VERTEX
  5
b26
  8
Layer_1
  10
189.82053
  20
131.47974
  0
VERTEX
  5
b27
  8
Layer_1
  10
189.72383
  20
131.43332
  0
VERTEX
  5
b28
  8
Layer_1
  10
189.15167
  20
131.14987
  0
VERTEX
  5
b29
  8
Layer_1
  10
189.05568
  20
131.10089
  0
VERTEX
  5
b2a
  8
Layer_1
  10
188.47871
  20
130.79669
  0
VERTEX
  5
b2b
  8
Layer_1
  10
188.38541
  20
130.74588
  0
VERTEX
  5
b2c
  8
Layer_1
  10
187.81911
  20
130.42911
  0
VERTEX
  5
b2d
  8
Layer_1
  10
187.72661
  20
130.37601
  0
VERTEX
  5
b2e
  8
Layer_1
  10
187.17119
  20
130.04691
  0
VERTEX
  5
b2f
  8
Layer_1
  10
187.07959
  20
129.99109
  0
VERTEX
  5
b30
  8
Layer_1
  10
186.53526
  20
129.6499
  0
VERTEX
  5
b31
  8
Layer_1
  10
186.44716
  20
129.5932
  0
VERTEX
  5
b32
  8
Layer_1
  10
185.91393
  20
129.24048
  0
VERTEX
  5
b33
  8
Layer_1
  10
185.82542
  20
129.1803
  0
VERTEX
  5
b34
  8
Layer_1
  10
185.30327
  20
128.81592
  0
VERTEX
  5
b35
  8
Layer_1
  10
185.21626
  20
128.75351
  0
VERTEX
  5
b36
  8
Layer_1
  10
184.70561
  20
128.37778
  0
VERTEX
  5
b37
  8
Layer_1
  10
184.62172
  20
128.31448
  0
VERTEX
  5
b38
  8
Layer_1
  10
184.12216
  20
127.92764
  0
VERTEX
  5
b39
  8
Layer_1
  10
184.03957
  20
127.86224
  0
VERTEX
  5
b3a
  8
Layer_1
  10
183.55151
  20
127.46472
  0
VERTEX
  5
b3b
  8
Layer_1
  10
183.47031
  20
127.39679
  0
VERTEX
  5
b3c
  8
Layer_1
  10
182.99397
  20
126.98883
  0
VERTEX
  5
b3d
  8
Layer_1
  10
182.91527
  20
126.91986
  0
VERTEX
  5
b3e
  8
Layer_1
  10
182.45042
  20
126.50165
  0
VERTEX
  5
b3f
  8
Layer_1
  10
182.37303
  20
126.43054
  0
VERTEX
  5
b40
  8
Layer_1
  10
181.91991
  20
126.00232
  0
VERTEX
  5
b41
  8
Layer_1
  10
181.84541
  20
125.93011
  0
VERTEX
  5
b42
  8
Layer_1
  10
181.40401
  20
125.49231
  0
VERTEX
  5
b43
  8
Layer_1
  10
181.3302
  20
125.41718
  0
VERTEX
  5
b44
  8
Layer_1
  10
180.90073
  20
124.96973
  0
VERTEX
  5
b45
  8
Layer_1
  10
180.83063
  20
124.89474
  0
VERTEX
  5
b46
  8
Layer_1
  10
180.41309
  20
124.43832
  0
VERTEX
  5
b47
  8
Layer_1
  10
180.34299
  20
124.3598
  0
VERTEX
  5
b48
  8
Layer_1
  10
179.93756
  20
123.89417
  0
VERTEX
  5
b49
  8
Layer_1
  10
179.87166
  20
123.81659
  0
VERTEX
  5
b4a
  8
Layer_1
  10
179.47816
  20
123.34235
  0
VERTEX
  5
b4b
  8
Layer_1
  10
179.41246
  20
123.26114
  0
VERTEX
  5
b4c
  8
Layer_1
  10
179.03151
  20
122.77853
  0
VERTEX
  5
b4d
  8
Layer_1
  10
178.96941
  20
122.69794
  0
VERTEX
  5
b4e
  8
Layer_1
  10
178.6006
  20
122.20721
  0
VERTEX
  5
b4f
  8
Layer_1
  10
178.5401
  20
122.12463
  0
VERTEX
  5
b50
  8
Layer_1
  10
178.18362
  20
121.62585
  0
VERTEX
  5
b51
  8
Layer_1
  10
178.12462
  20
121.54132
  0
VERTEX
  5
b52
  8
Layer_1
  10
177.7807
  20
121.03485
  0
VERTEX
  5
b53
  8
Layer_1
  10
177.724
  20
120.94907
  0
VERTEX
  5
b54
  8
Layer_1
  10
177.39285
  20
120.43527
  0
VERTEX
  5
b55
  8
Layer_1
  10
177.33965
  20
120.35077
  0
VERTEX
  5
b56
  8
Layer_1
  10
177.02083
  20
119.8299
  0
VERTEX
  5
b57
  8
Layer_1
  10
176.96773
  20
119.74069
  0
VERTEX
  5
b58
  8
Layer_1
  10
176.66188
  20
119.21268
  0
VERTEX
  5
b59
  8
Layer_1
  10
176.61288
  20
119.12585
  0
VERTEX
  5
b5a
  8
Layer_1
  10
176.31979
  20
118.59155
  0
VERTEX
  5
b5b
  8
Layer_1
  10
176.2715
  20
118.50098
  0
VERTEX
  5
b5c
  8
Layer_1
  10
175.99139
  20
117.95996
  0
VERTEX
  5
b5d
  8
Layer_1
  10
175.9464
  20
117.87067
  0
VERTEX
  5
b5e
  8
Layer_1
  10
175.67924
  20
117.32385
  0
VERTEX
  5
b5f
  8
Layer_1
  10
175.63614
  20
117.23254
  0
VERTEX
  5
b60
  8
Layer_1
  10
175.38196
  20
116.67963
  0
VERTEX
  5
b61
  8
Layer_1
  10
175.34056
  20
116.58673
  0
VERTEX
  5
b62
  8
Layer_1
  10
175.09978
  20
116.02838
  0
VERTEX
  5
b63
  8
Layer_1
  10
175.06128
  20
115.93619
  0
VERTEX
  5
b64
  8
Layer_1
  10
174.83366
  20
115.37259
  0
VERTEX
  5
b65
  8
Layer_1
  10
174.79686
  20
115.27829
  0
VERTEX
  5
b66
  8
Layer_1
  10
174.58264
  20
114.70944
  0
VERTEX
  5
b67
  8
Layer_1
  10
174.54834
  20
114.61505
  0
VERTEX
  5
b68
  8
Layer_1
  10
174.3475
  20
114.04144
  0
VERTEX
  5
b69
  8
Layer_1
  10
174.31531
  20
113.94562
  0
VERTEX
  5
b6a
  8
Layer_1
  10
174.12807
  20
113.36746
  0
VERTEX
  5
b6b
  8
Layer_1
  10
174.09837
  20
113.27167
  0
VERTEX
  5
b6c
  8
Layer_1
  10
173.92473
  20
112.68927
  0
VERTEX
  5
b6d
  8
Layer_1
  10
173.89713
  20
112.59277
  0
VERTEX
  5
b6e
  8
Layer_1
  10
173.73709
  20
112.00623
  0
VERTEX
  5
b6f
  8
Layer_1
  10
173.7114
  20
111.90732
  0
VERTEX
  5
b70
  8
Layer_1
  10
173.56538
  20
111.31693
  0
VERTEX
  5
b71
  8
Layer_1
  10
173.54279
  20
111.22092
  0
VERTEX
  5
b72
  8
Layer_1
  10
173.41037
  20
110.62723
  0
VERTEX
  5
b73
  8
Layer_1
  10
173.38927
  20
110.52658
  0
VERTEX
  5
b74
  8
Layer_1
  10
173.27107
  20
109.92957
  0
VERTEX
  5
b75
  8
Layer_1
  10
173.25287
  20
109.83167
  0
VERTEX
  5
b76
  8
Layer_1
  10
173.14848
  20
109.23151
  0
VERTEX
  5
b77
  8
Layer_1
  10
173.13199
  20
109.12958
  0
VERTEX
  5
b78
  8
Layer_1
  10
173.04199
  20
108.52667
  0
VERTEX
  5
b79
  8
Layer_1
  10
173.0284
  20
108.42786
  0
VERTEX
  5
b7a
  8
Layer_1
  10
172.9525
  20
107.82269
  0
VERTEX
  5
b7b
  8
Layer_1
  10
172.94099
  20
107.72058
  0
VERTEX
  5
b7c
  8
Layer_1
  10
172.8795
  20
107.11285
  0
VERTEX
  5
b7d
  8
Layer_1
  10
172.8705
  20
107.01288
  0
VERTEX
  5
b7e
  8
Layer_1
  10
172.8232
  20
106.40347
  0
VERTEX
  5
b7f
  8
Layer_1
  10
172.81619
  20
106.30051
  0
SEQEND
  0
POLYLINE
  5
b81
  8
Layer_1
  62
5
  66
1
  10
0
  20
0
  30
0
  0
VERTEX
  5
b81
  8
Layer_1
  10
232.66
  20
101.49994
  0
VERTEX
  5
b82
  8
Layer_1
  10
232.6039
  20
100.88513
  0
VERTEX
  5
b83
  8
Layer_1
  10
232.5934
  20
100.78302
  0
VERTEX
  5
b84
  8
Layer_1
  10
232.52249
  20
100.1684
  0
VERTEX
  5
b85
  8
Layer_1
  10
232.50909
  20
100.06427
  0
VERTEX
  5
b86
  8
Layer_1
  10
232.4229
  20
99.450012
  0
VERTEX
  5
b87
  8
Layer_1
  10
232.40739
  20
99.347534
  0
VERTEX
  5
b88
  8
Layer_1
  10
232.30617
  20
98.734192
  0
VERTEX
  5
b89
  8
Layer_1
  10
232.28777
  20
98.631409
  0
VERTEX
  5
b8a
  8
Layer_1
  10
232.17125
  20
98.018921
  0
VERTEX
  5
b8b
  8
Layer_1
  10
232.15054
  20
97.916626
  0
VERTEX
  5
b8c
  8
Layer_1
  10
232.01875
  20
97.305359
  0
VERTEX
  5
b8d
  8
Layer_1
  10
231.99506
  20
97.202209
  0
VERTEX
  5
b8e
  8
Layer_1
  10
231.84779
  20
96.59259
  0
VERTEX
  5
b8f
  8
Layer_1
  10
231.8221
  20
96.490906
  0
VERTEX
  5
b90
  8
Layer_1
  10
231.65936
  20
95.882813
  0
VERTEX
  5
b91
  8
Layer_1
  10
231.63046
  20
95.78009
  0
VERTEX
  5
b92
  8
Layer_1
  10
231.45198
  20
95.174255
  0
VERTEX
  5
b93
  8
Layer_1
  10
231.42128
  20
95.074463
  0
VERTEX
  5
b94
  8
Layer_1
  10
231.22734
  20
94.470703
  0
VERTEX
  5
b95
  8
Layer_1
  10
231.19324
  20
94.368835
  0
VERTEX
  5
b96
  8
Layer_1
  10
230.98338
  20
93.767822
  0
VERTEX
  5
b97
  8
Layer_1
  10
230.94759
  20
93.669189
  0
VERTEX
  5
b98
  8
Layer_1
  10
230.72206
  20
93.070679
  0
VERTEX
  5
b99
  8
Layer_1
  10
230.68256
  20
92.969666
  0
VERTEX
  5
b9a
  8
Layer_1
  10
230.4409
  20
92.374512
  0
VERTEX
  5
b9b
  8
Layer_1
  10
230.4005
  20
92.278442
  0
VERTEX
  5
b9c
  8
Layer_1
  10
230.1432
  20
91.686401
  0
VERTEX
  5
b9d
  8
Layer_1
  10
230.0988
  20
91.587677
  0
VERTEX
  5
b9e
  8
Layer_1
  10
229.82516
  20
90.999176
  0
VERTEX
  5
b9f
  8
Layer_1
  10
229.77876
  20
90.902771
  0
VERTEX
  5
ba0
  8
Layer_1
  10
229.48903
  20
90.318298
  0
VERTEX
  5
ba1
  8
Layer_1
  10
229.44073
  20
90.223511
  0
VERTEX
  5
ba2
  8
Layer_1
  10
229.14307
  20
89.658691
  0
VERTEX
  5
ba3
  8
Layer_1
  10
229.09196
  20
89.565002
  0
VERTEX
  5
ba4
  8
Layer_1
  10
228.7811
  20
89.009186
  0
VERTEX
  5
ba5
  8
Layer_1
  10
228.72839
  20
88.917297
  0
VERTEX
  5
ba6
  8
Layer_1
  10
228.40456
  20
88.370422
  0
VERTEX
  5
ba7
  8
Layer_1
  10
228.34956
  20
88.280029
  0
VERTEX
  5
ba8
  8
Layer_1
  10
228.01295
  20
87.742432
  0
VERTEX
  5
ba9
  8
Layer_1
  10
227.95566
  20
87.653534
  0
VERTEX
  5
baa
  8
Layer_1
  10
227.60649
  20
87.125336
  0
VERTEX
  5
bab
  8
Layer_1
  10
227.54768
  20
87.038727
  0
VERTEX
  5
bac
  8
Layer_1
  10
227.18639
  20
86.520142
  0
VERTEX
  5
bad
  8
Layer_1
  10
227.12428
  20
86.433319
  0
VERTEX
  5
bae
  8
Layer_1
  10
226.75067
  20
85.924561
  0
VERTEX
  5
baf
  8
Layer_1
  10
226.68839
  20
85.841736
  0
VERTEX
  5
bb0
  8
Layer_1
  10
226.30304
  20
85.342773
  0
VERTEX
  5
bb1
  8
Layer_1
  10
226.23795
  20
85.260773
  0
VERTEX
  5
bb2
  8
Layer_1
  10
225.84111
  20
84.772095
  0
VERTEX
  5
bb3
  8
Layer_1
  10
225.77391
  20
84.691376
  0
VERTEX
  5
bb4
  8
Layer_1
  10
225.36555
  20
84.212921
  0
VERTEX
  5
bb5
  8
Layer_1
  10
225.29585
  20
84.133423
  0
VERTEX
  5
bb6
  8
Layer_1
  10
224.87621
  20
83.665649
  0
VERTEX
  5
bb7
  8
Layer_1
  10
224.8053
  20
83.58844
  0
VERTEX
  5
bb8
  8
Layer_1
  10
224.37456
  20
83.131348
  0
VERTEX
  5
bb9
  8
Layer_1
  10
224.30296
  20
83.057373
  0
VERTEX
  5
bba
  8
Layer_1
  10
223.86177
  20
82.611145
  0
VERTEX
  5
bbb
  8
Layer_1
  10
223.78627
  20
82.536621
  0
VERTEX
  5
bbc
  8
Layer_1
  10
223.3342
  20
82.101501
  0
VERTEX
  5
bbd
  8
Layer_1
  10
223.2583
  20
82.03009
  0
VERTEX
  5
bbe
  8
Layer_1
  10
222.79596
  20
81.606262
  0
VERTEX
  5
bbf
  8
Layer_1
  10
222.71916
  20
81.537476
  0
VERTEX
  5
bc0
  8
Layer_1
  10
222.2468
  20
81.124939
  0
VERTEX
  5
bc1
  8
Layer_1
  10
222.16711
  20
81.057129
  0
VERTEX
  5
bc2
  8
Layer_1
  10
221.68489
  20
80.65625
  0
VERTEX
  5
bc3
  8
Layer_1
  10
221.60289
  20
80.589783
  0
VERTEX
  5
bc4
  8
Layer_1
  10
221.11086
  20
80.200897
  0
VERTEX
  5
bc5
  8
Layer_1
  10
221.02885
  20
80.137512
  0
VERTEX
  5
bc6
  8
Layer_1
  10
220.52742
  20
79.760559
  0
VERTEX
  5
bc7
  8
Layer_1
  10
220.44272
  20
79.698639
  0
VERTEX
  5
bc8
  8
Layer_1
  10
219.93185
  20
79.333862
  0
VERTEX
  5
bc9
  8
Layer_1
  10
219.84605
  20
79.274048
  0
VERTEX
  5
bca
  8
Layer_1
  10
219.32643
  20
78.921753
  0
VERTEX
  5
bcb
  8
Layer_1
  10
219.23962
  20
78.864349
  0
VERTEX
  5
bcc
  8
Layer_1
  10
218.71098
  20
78.524475
  0
VERTEX
  5
bcd
  8
Layer_1
  10
218.62128
  20
78.468353
  0
VERTEX
  5
bce
  8
Layer_1
  10
218.08406
  20
78.141388
  0
VERTEX
  5
bcf
  8
Layer_1
  10
217.99416
  20
78.088074
  0
VERTEX
  5
bd0
  8
Layer_1
  10
217.44833
  20
77.773865
  0
VERTEX
  5
bd1
  8
Layer_1
  10
217.35713
  20
77.722778
  0
VERTEX
  5
bd2
  8
Layer_1
  10
216.80338
  20
77.421753
  0
VERTEX
  5
bd3
  8
Layer_1
  10
216.70987
  20
77.372467
  0
VERTEX
  5
bd4
  8
Layer_1
  10
216.14816
  20
77.084808
  0
VERTEX
  5
bd5
  8
Layer_1
  10
216.05444
  20
77.0383
  0
VERTEX
  5
bd6
  8
Layer_1
  10
215.48502
  20
76.764008
  0
VERTEX
  5
bd7
  8
Layer_1
  10
215.38922
  20
76.719299
  0
VERTEX
  5
bd8
  8
Layer_1
  10
214.81203
  20
76.458618
  0
VERTEX
  5
bd9
  8
Layer_1
  10
214.71492
  20
76.416138
  0
VERTEX
  5
bda
  8
Layer_1
  10
214.13063
  20
76.169556
  0
VERTEX
  5
bdb
  8
Layer_1
  10
214.03273
  20
76.129547
  0
VERTEX
  5
bdc
  8
Layer_1
  10
213.44131
  20
75.896942
  0
VERTEX
  5
bdd
  8
Layer_1
  10
213.34212
  20
75.859436
  0
VERTEX
  5
bde
  8
Layer_1
  10
212.74382
  20
75.641052
  0
VERTEX
  5
bdf
  8
Layer_1
  10
212.64462
  20
75.606049
  0
VERTEX
  5
be0
  8
Layer_1
  10
212.03961
  20
75.401886
  0
VERTEX
  5
be1
  8
Layer_1
  10
211.93732
  20
75.368805
  0
VERTEX
  5
be2
  8
Layer_1
  10
211.32751
  20
75.179901
  0
VERTEX
  5
be3
  8
Layer_1
  10
211.22478
  20
75.149597
  0
VERTEX
  5
be4
  8
Layer_1
  10
210.61183
  20
74.976379
  0
VERTEX
  5
be5
  8
Layer_1
  10
210.51144
  20
74.949188
  0
VERTEX
  5
be6
  8
Layer_1
  10
209.89575
  20
74.791229
  0
VERTEX
  5
be7
  8
Layer_1
  10
209.79221
  20
74.766113
  0
VERTEX
  5
be8
  8
Layer_1
  10
209.17424
  20
74.62384
  0
VERTEX
  5
be9
  8
Layer_1
  10
209.07089
  20
74.60144
  0
VERTEX
  5
bea
  8
Layer_1
  10
208.45041
  20
74.47467
  0
VERTEX
  5
beb
  8
Layer_1
  10
208.34706
  20
74.454895
  0
VERTEX
  5
bec
  8
Layer_1
  10
207.72491
  20
74.343567
  0
VERTEX
  5
bed
  8
Layer_1
  10
207.61948
  20
74.325958
  0
VERTEX
  5
bee
  8
Layer_1
  10
206.99565
  20
74.230347
  0
VERTEX
  5
bef
  8
Layer_1
  10
206.89273
  20
74.215942
  0
VERTEX
  5
bf0
  8
Layer_1
  10
206.26762
  20
74.135559
  0
VERTEX
  5
bf1
  8
Layer_1
  10
206.16429
  20
74.123657
  0
VERTEX
  5
bf2
  8
Layer_1
  10
205.53796
  20
74.058563
  0
VERTEX
  5
bf3
  8
Layer_1
  10
205.43169
  20
74.048553
  0
VERTEX
  5
bf4
  8
Layer_1
  10
204.80473
  20
73.999146
  0
VERTEX
  5
bf5
  8
Layer_1
  10
204.70222
  20
73.992157
  0
VERTEX
  5
bf6
  8
Layer_1
  10
204.07463
  20
73.957855
  0
VERTEX
  5
bf7
  8
Layer_1
  10
203.96921
  20
73.95285
  0
VERTEX
  5
bf8
  8
Layer_1
  10
203.34161
  20
73.93396
  0
VERTEX
  5
bf9
  8
Layer_1
  10
203.23595
  20
73.931946
  0
VERTEX
  5
bfa
  8
Layer_1
  10
202.60837
  20
73.928955
  0
VERTEX
  5
bfb
  8
Layer_1
  10
202.50417
  20
73.929749
  0
VERTEX
  5
bfc
  8
Layer_1
  10
201.87679
  20
73.941772
  0
VERTEX
  5
bfd
  8
Layer_1
  10
201.77388
  20
73.944763
  0
VERTEX
  5
bfe
  8
Layer_1
  10
201.14734
  20
73.971741
  0
VERTEX
  5
bff
  8
Layer_1
  10
201.04144
  20
73.977753
  0
VERTEX
  5
c00
  8
Layer_1
  10
200.41576
  20
74.020264
  0
VERTEX
  5
c01
  8
Layer_1
  10
200.31284
  20
74.028259
  0
VERTEX
  5
c02
  8
Layer_1
  10
199.68839
  20
74.085754
  0
VERTEX
  5
c03
  8
Layer_1
  10
199.5842
  20
74.09668
  0
VERTEX
  5
c04
  8
Layer_1
  10
198.9612
  20
74.169373
  0
VERTEX
  5
c05
  8
Layer_1
  10
198.85703
  20
74.182983
  0
VERTEX
  5
c06
  8
Layer_1
  10
198.23592
  20
74.271057
  0
VERTEX
  5
c07
  8
Layer_1
  10
198.13319
  20
74.286774
  0
VERTEX
  5
c08
  8
Layer_1
  10
197.51418
  20
74.389923
  0
VERTEX
  5
c09
  8
Layer_1
  10
197.41083
  20
74.408508
  0
VERTEX
  5
c0a
  8
Layer_1
  10
196.79391
  20
74.526917
  0
VERTEX
  5
c0b
  8
Layer_1
  10
196.69141
  20
74.547821
  0
VERTEX
  5
c0c
  8
Layer_1
  10
196.07741
  20
74.681305
  0
VERTEX
  5
c0d
  8
Layer_1
  10
195.97574
  20
74.704712
  0
VERTEX
  5
c0e
  8
Layer_1
  10
195.36447
  20
74.853271
  0
VERTEX
  5
c0f
  8
Layer_1
  10
195.26279
  20
74.879364
  0
VERTEX
  5
c10
  8
Layer_1
  10
194.65486
  20
75.042999
  0
VERTEX
  5
c11
  8
Layer_1
  10
194.55403
  20
75.071411
  0
VERTEX
  5
c12
  8
Layer_1
  10
193.94945
  20
75.250061
  0
VERTEX
  5
c13
  8
Layer_1
  10
193.8484
  20
75.28125
  0
VERTEX
  5
c14
  8
Layer_1
  10
193.2478
  20
75.474915
  0
VERTEX
  5
c15
  8
Layer_1
  10
193.14801
  20
75.508423
  0
VERTEX
  5
c16
  8
Layer_1
  10
192.55138
  20
75.717163
  0
VERTEX
  5
c17
  8
Layer_1
  10
192.45328
  20
75.75296
  0
VERTEX
  5
c18
  8
Layer_1
  10
191.86082
  20
75.976593
  0
VERTEX
  5
c19
  8
Layer_1
  10
191.76163
  20
76.015503
  0
VERTEX
  5
c1a
  8
Layer_1
  10
191.174
  20
76.254181
  0
VERTEX
  5
c1b
  8
Layer_1
  10
191.0771
  20
76.2948
  0
VERTEX
  5
c1c
  8
Layer_1
  10
190.49428
  20
76.54834
  0
VERTEX
  5
c1d
  8
Layer_1
  10
190.39807
  20
76.591614
  0
VERTEX
  5
c1e
  8
Layer_1
  10
189.82048
  20
76.860046
  0
VERTEX
  5
c1f
  8
Layer_1
  10
189.72379
  20
76.906464
  0
VERTEX
  5
c20
  8
Layer_1
  10
189.15163
  20
77.189911
  0
VERTEX
  5
c21
  8
Layer_1
  10
189.05563
  20
77.238892
  0
VERTEX
  5
c22
  8
Layer_1
  10
188.47867
  20
77.543091
  0
VERTEX
  5
c23
  8
Layer_1
  10
188.38536
  20
77.593903
  0
VERTEX
  5
c24
  8
Layer_1
  10
187.81906
  20
77.910675
  0
VERTEX
  5
c25
  8
Layer_1
  10
187.72656
  20
77.963776
  0
VERTEX
  5
c26
  8
Layer_1
  10
187.17114
  20
78.292877
  0
VERTEX
  5
c27
  8
Layer_1
  10
187.07954
  20
78.348694
  0
VERTEX
  5
c28
  8
Layer_1
  10
186.53522
  20
78.68988
  0
VERTEX
  5
c29
  8
Layer_1
  10
186.44711
  20
78.746582
  0
VERTEX
  5
c2a
  8
Layer_1
  10
185.91388
  20
79.099304
  0
VERTEX
  5
c2b
  8
Layer_1
  10
185.82538
  20
79.159485
  0
VERTEX
  5
c2c
  8
Layer_1
  10
185.30322
  20
79.523865
  0
VERTEX
  5
c2d
  8
Layer_1
  10
185.21622
  20
79.586273
  0
VERTEX
  5
c2e
  8
Layer_1
  10
184.70557
  20
79.962006
  0
VERTEX
  5
c2f
  8
Layer_1
  10
184.62167
  20
80.02533
  0
VERTEX
  5
c30
  8
Layer_1
  10
184.12212
  20
80.41217
  0
VERTEX
  5
c31
  8
Layer_1
  10
184.03952
  20
80.477539
  0
VERTEX
  5
c32
  8
Layer_1
  10
183.55147
  20
80.875092
  0
VERTEX
  5
c33
  8
Layer_1
  10
183.47026
  20
80.942993
  0
VERTEX
  5
c34
  8
Layer_1
  10
182.99393
  20
81.350952
  0
VERTEX
  5
c35
  8
Layer_1
  10
182.91522
  20
81.419952
  0
VERTEX
  5
c36
  8
Layer_1
  10
182.45038
  20
81.838165
  0
VERTEX
  5
c37
  8
Layer_1
  10
182.37299
  20
81.909241
  0
VERTEX
  5
c38
  8
Layer_1
  10
181.91986
  20
82.337463
  0
VERTEX
  5
c39
  8
Layer_1
  10
181.84537
  20
82.409668
  0
VERTEX
  5
c3a
  8
Layer_1
  10
181.40396
  20
82.847473
  0
VERTEX
  5
c3b
  8
Layer_1
  10
181.33015
  20
82.922607
  0
VERTEX
  5
c3c
  8
Layer_1
  10
180.90068
  20
83.370056
  0
VERTEX
  5
c3d
  8
Layer_1
  10
180.83058
  20
83.445038
  0
VERTEX
  5
c3e
  8
Layer_1
  10
180.41304
  20
83.901459
  0
VERTEX
  5
c3f
  8
Layer_1
  10
180.34294
  20
83.97995
  0
VERTEX
  5
c40
  8
Layer_1
  10
179.93752
  20
84.445587
  0
VERTEX
  5
c41
  8
Layer_1
  10
179.87161
  20
84.523193
  0
VERTEX
  5
c42
  8
Layer_1
  10
179.47812
  20
84.997437
  0
VERTEX
  5
c43
  8
Layer_1
  10
179.41241
  20
85.078644
  0
VERTEX
  5
c44
  8
Layer_1
  10
179.03146
  20
85.561218
  0
VERTEX
  5
c45
  8
Layer_1
  10
178.96936
  20
85.641815
  0
VERTEX
  5
c46
  8
Layer_1
  10
178.60056
  20
86.132538
  0
VERTEX
  5
c47
  8
Layer_1
  10
178.54005
  20
86.215149
  0
VERTEX
  5
c48
  8
Layer_1
  10
178.18358
  20
86.713928
  0
VERTEX
  5
c49
  8
Layer_1
  10
178.12457
  20
86.798431
  0
VERTEX
  5
c4a
  8
Layer_1
  10
177.78065
  20
87.304901
  0
VERTEX
  5
c4b
  8
Layer_1
  10
177.72395
  20
87.390686
  0
VERTEX
  5
c4c
  8
Layer_1
  10
177.39281
  20
87.90451
  0
VERTEX
  5
c4d
  8
Layer_1
  10
177.3396
  20
87.989014
  0
VERTEX
  5
c4e
  8
Layer_1
  10
177.02078
  20
88.509888
  0
VERTEX
  5
c4f
  8
Layer_1
  10
176.96768
  20
88.59906
  0
VERTEX
  5
c50
  8
Layer_1
  10
176.66183
  20
89.127106
  0
VERTEX
  5
c51
  8
Layer_1
  10
176.61284
  20
89.213898
  0
VERTEX
  5
c52
  8
Layer_1
  10
176.31975
  20
89.748199
  0
VERTEX
  5
c53
  8
Layer_1
  10
176.27145
  20
89.838806
  0
VERTEX
  5
c54
  8
Layer_1
  10
175.99135
  20
90.379822
  0
VERTEX
  5
c55
  8
Layer_1
  10
175.94635
  20
90.469116
  0
VERTEX
  5
c56
  8
Layer_1
  10
175.6792
  20
91.01593
  0
VERTEX
  5
c57
  8
Layer_1
  10
175.63609
  20
91.107208
  0
VERTEX
  5
c58
  8
Layer_1
  10
175.38191
  20
91.660126
  0
VERTEX
  5
c59
  8
Layer_1
  10
175.34052
  20
91.753052
  0
VERTEX
  5
c5a
  8
Layer_1
  10
175.09973
  20
92.311401
  0
VERTEX
  5
c5b
  8
Layer_1
  10
175.06123
  20
92.403595
  0
VERTEX
  5
c5c
  8
Layer_1
  10
174.83362
  20
92.967194
  0
VERTEX
  5
c5d
  8
Layer_1
  10
174.79681
  20
93.061493
  0
VERTEX
  5
c5e
  8
Layer_1
  10
174.5826
  20
93.63031
  0
VERTEX
  5
c5f
  8
Layer_1
  10
174.54829
  20
93.724731
  0
VERTEX
  5
c60
  8
Layer_1
  10
174.34746
  20
94.29834
  0
VERTEX
  5
c61
  8
Layer_1
  10
174.31526
  20
94.394135
  0
VERTEX
  5
c62
  8
Layer_1
  10
174.12802
  20
94.972321
  0
VERTEX
  5
c63
  8
Layer_1
  10
174.09833
  20
95.068115
  0
VERTEX
  5
c64
  8
Layer_1
  10
173.92468
  20
95.650513
  0
VERTEX
  5
c65
  8
Layer_1
  10
173.89708
  20
95.747009
  0
VERTEX
  5
c66
  8
Layer_1
  10
173.73705
  20
96.333557
  0
VERTEX
  5
c67
  8
Layer_1
  10
173.71135
  20
96.432465
  0
VERTEX
  5
c68
  8
Layer_1
  10
173.56534
  20
97.022858
  0
VERTEX
  5
c69
  8
Layer_1
  10
173.54274
  20
97.118835
  0
VERTEX
  5
c6a
  8
Layer_1
  10
173.41032
  20
97.712524
  0
VERTEX
  5
c6b
  8
Layer_1
  10
173.38922
  20
97.813171
  0
VERTEX
  5
c6c
  8
Layer_1
  10
173.27103
  20
98.410217
  0
VERTEX
  5
c6d
  8
Layer_1
  10
173.25282
  20
98.508118
  0
VERTEX
  5
c6e
  8
Layer_1
  10
173.14844
  20
99.108276
  0
VERTEX
  5
c6f
  8
Layer_1
  10
173.13194
  20
99.210205
  0
VERTEX
  5
c70
  8
Layer_1
  10
173.04195
  20
99.81311
  0
VERTEX
  5
c71
  8
Layer_1
  10
173.02835
  20
99.911926
  0
VERTEX
  5
c72
  8
Layer_1
  10
172.95245
  20
100.51709
  0
VERTEX
  5
c73
  8
Layer_1
  10
172.94095
  20
100.6192
  0
VERTEX
  5
c74
  8
Layer_1
  10
172.87946
  20
101.22693
  0
VERTEX
  5
c75
  8
Layer_1
  10
172.87045
  20
101.3269
  0
VERTEX
  5
c76
  8
Layer_1
  10
172.82315
  20
101.93628
  0
VERTEX
  5
c77
  8
Layer_1
  10
172.81615
  20
102.03925
  0
SEQEND
  0
POLYLINE
  5
c79
  8
Layer_1
  62
5
  66
1
  10
0
  20
0
  30
0
  0
VERTEX
  5
c79
  8
Layer_1
  10
232.63574
  20
103.50211
  0
VERTEX
  5
c7a
  8
Layer_1
  10
232.63574
  20
105.15652
  0
SEQEND
  0
POLYLINE
  5
c7c
  8
Layer_1
  62
5
  66
1
  10
0
  20
0
  30
0
  0
VERTEX
  5
c7c
  8
Layer_1
  10
172.76115
  20
103.40625
  0
VERTEX
  5
c7d
  8
Layer_1
  10
172.76115
  20
105.06067
  0
SEQEND
  0
ENDSEC
  0
EOF
