  0
SECTION
  2
HEADER
  9
$ACADVER
  1
AC1009
  0
ENDSEC
  0
SECTION
  2
ENTITIES
  0
POLYLINE
  5
90
  8
Layer_3
  62
52
  66
1
  10
0
  20
0
  30
0
  0
VERTEX
  5
90
  8
Layer_3
  10
232.06242
  20
252.46356
  0
VERTEX
  5
91
  8
Layer_3
  10
232.18852
  20
252.36475
  42
0.015437058
  0
VERTEX
  5
92
  8
Layer_3
  10
232.45183
  20
252.18207
  0
VERTEX
  5
93
  8
Layer_3
  10
232.58882
  20
252.09872
  0
VERTEX
  5
94
  8
Layer_3
  10
232.72878
  20
252.0209
  0
VERTEX
  5
95
  8
Layer_3
  10
232.8719
  20
251.9487
  0
VERTEX
  5
96
  8
Layer_3
  10
233.01762
  20
251.88217
  0
VERTEX
  5
97
  8
Layer_3
  10
233.16591
  20
251.82138
  0
VERTEX
  5
98
  8
Layer_3
  10
233.31654
  20
251.76657
  0
VERTEX
  5
99
  8
Layer_3
  10
233.46919
  20
251.71786
  0
VERTEX
  5
9a
  8
Layer_3
  10
233.62358
  20
251.67505
  0
VERTEX
  5
9b
  8
Layer_3
  10
233.77959
  20
251.63843
  0
VERTEX
  5
9c
  8
Layer_3
  10
233.93697
  20
251.60797
  0
VERTEX
  5
9d
  8
Layer_3
  10
234.09535
  20
251.5838
  0
VERTEX
  5
9e
  8
Layer_3
  10
234.25453
  20
251.56583
  0
VERTEX
  5
9f
  8
Layer_3
  10
234.41447
  20
251.55411
  0
VERTEX
  5
a0
  8
Layer_3
  10
234.62807
  20
251.54858
  0
VERTEX
  5
a1
  8
Layer_3
  10
243.79793
  20
251.54858
  0
VERTEX
  5
a2
  8
Layer_3
  10
243.79793
  20
219.28265
  0
VERTEX
  5
a3
  8
Layer_3
  10
243.80095
  20
219.1225
  0
VERTEX
  5
a4
  8
Layer_3
  10
243.80995
  20
218.96259
  0
VERTEX
  5
a5
  8
Layer_3
  10
243.82573
  20
218.80304
  0
VERTEX
  5
a6
  8
Layer_3
  10
243.84773
  20
218.64423
  0
VERTEX
  5
a7
  8
Layer_3
  10
243.87624
  20
218.48663
  0
VERTEX
  5
a8
  8
Layer_3
  10
243.91075
  20
218.33008
  0
VERTEX
  5
a9
  8
Layer_3
  10
243.95155
  20
218.17505
  0
VERTEX
  5
aa
  8
Layer_3
  10
243.99846
  20
218.02185
  0
VERTEX
  5
ab
  8
Layer_3
  10
244.05104
  20
217.87061
  0
VERTEX
  5
ac
  8
Layer_3
  10
244.10985
  20
217.7215
  0
VERTEX
  5
ad
  8
Layer_3
  10
244.17455
  20
217.57483
  0
VERTEX
  5
ae
  8
Layer_3
  10
244.24486
  20
217.43091
  0
VERTEX
  5
af
  8
Layer_3
  10
244.32085
  20
217.28973
  0
VERTEX
  5
b0
  8
Layer_3
  10
244.40245
  20
217.15179
  0
VERTEX
  5
b1
  8
Layer_3
  10
244.48936
  20
217.01715
  0
VERTEX
  5
b2
  8
Layer_3
  10
244.58134
  20
216.88611
  0
VERTEX
  5
b3
  8
Layer_3
  10
244.67876
  20
216.75861
  0
VERTEX
  5
b4
  8
Layer_3
  10
244.7809
  20
216.63525
  0
VERTEX
  5
b5
  8
Layer_3
  10
244.88799
  20
216.51587
  0
VERTEX
  5
b6
  8
Layer_3
  10
244.99965
  20
216.40106
  0
VERTEX
  5
b7
  8
Layer_3
  10
245.11565
  20
216.29059
  0
VERTEX
  5
b8
  8
Layer_3
  10
245.23601
  20
216.18469
  0
VERTEX
  5
b9
  8
Layer_3
  10
245.36055
  20
216.08374
  0
VERTEX
  5
ba
  8
Layer_3
  10
245.48882
  20
215.98792
  0
VERTEX
  5
bb
  8
Layer_3
  10
245.62108
  20
215.89703
  0
VERTEX
  5
bc
  8
Layer_3
  10
245.75648
  20
215.81152
  0
VERTEX
  5
bd
  8
Layer_3
  10
245.89525
  20
215.73157
  0
VERTEX
  5
be
  8
Layer_3
  10
246.03719
  20
215.65692
  0
VERTEX
  5
bf
  8
Layer_3
  10
246.1819
  20
215.58801
  0
VERTEX
  5
c0
  8
Layer_3
  10
246.32921
  20
215.52509
  0
VERTEX
  5
c1
  8
Layer_3
  10
246.47887
  20
215.46783
  0
VERTEX
  5
c2
  8
Layer_3
  10
246.63069
  20
215.41656
  0
VERTEX
  5
c3
  8
Layer_3
  10
246.78453
  20
215.37128
  0
VERTEX
  5
c4
  8
Layer_3
  10
246.93993
  20
215.33228
  0
VERTEX
  5
c5
  8
Layer_3
  10
247.09673
  20
215.29919
  0
VERTEX
  5
c6
  8
Layer_3
  10
247.25468
  20
215.27246
  0
VERTEX
  5
c7
  8
Layer_3
  10
247.41365
  20
215.25208
  0
VERTEX
  5
c8
  8
Layer_3
  10
247.57323
  20
215.23779
  0
VERTEX
  5
c9
  8
Layer_3
  10
247.73338
  20
215.23009
  0
VERTEX
  5
ca
  8
Layer_3
  10
247.89354
  20
215.22849
  0
VERTEX
  5
cb
  8
Layer_3
  10
248.05437
  20
215.23329
  0
VERTEX
  5
cc
  8
Layer_3
  10
248.21431
  20
215.24458
  0
VERTEX
  5
cd
  8
Layer_3
  10
248.37367
  20
215.26198
  0
VERTEX
  5
ce
  8
Layer_3
  10
248.53206
  20
215.28572
  0
VERTEX
  5
cf
  8
Layer_3
  10
248.68944
  20
215.31563
  0
VERTEX
  5
d0
  8
Layer_3
  10
248.84563
  20
215.35188
  0
VERTEX
  5
d1
  8
Layer_3
  10
249.00026
  20
215.39424
  0
VERTEX
  5
d2
  8
Layer_3
  10
249.15309
  20
215.4427
  0
VERTEX
  5
d3
  8
Layer_3
  10
249.30373
  20
215.49696
  0
VERTEX
  5
d4
  8
Layer_3
  10
249.45219
  20
215.55733
  0
VERTEX
  5
d5
  8
Layer_3
  10
249.5981
  20
215.62347
  0
VERTEX
  5
d6
  8
Layer_3
  10
249.74144
  20
215.69531
  0
VERTEX
  5
d7
  8
Layer_3
  10
249.88161
  20
215.77271
  0
VERTEX
  5
d8
  8
Layer_3
  10
250.01878
  20
215.85565
  0
VERTEX
  5
d9
  8
Layer_3
  10
250.1526
  20
215.94398
  0
VERTEX
  5
da
  8
Layer_3
  10
250.28267
  20
216.03761
  0
VERTEX
  5
db
  8
Layer_3
  10
250.40898
  20
216.13618
  0
VERTEX
  5
dc
  8
Layer_3
  10
250.53133
  20
216.23976
  0
VERTEX
  5
dd
  8
Layer_3
  10
250.64952
  20
216.34785
  0
VERTEX
  5
de
  8
Layer_3
  10
250.76335
  20
216.46065
  0
VERTEX
  5
df
  8
Layer_3
  10
250.87263
  20
216.57808
  0
VERTEX
  5
e0
  8
Layer_3
  10
250.97716
  20
216.69942
  0
VERTEX
  5
e1
  8
Layer_3
  10
251.12187
  20
216.88533
  0
VERTEX
  5
e2
  8
Layer_3
  10
283.69678
  20
261.3147
  0
VERTEX
  5
e3
  8
Layer_3
  10
283.78906
  20
261.44598
  0
VERTEX
  5
e4
  8
Layer_3
  10
283.87598
  20
261.58057
  0
VERTEX
  5
e5
  8
Layer_3
  10
283.95746
  20
261.71857
  0
VERTEX
  5
e6
  8
Layer_3
  10
284.03345
  20
261.8595
  0
VERTEX
  5
e7
  8
Layer_3
  10
284.10394
  20
262.00342
  0
VERTEX
  5
e8
  8
Layer_3
  10
284.16846
  20
262.15015
  0
VERTEX
  5
e9
  8
Layer_3
  10
284.22729
  20
262.29919
  0
VERTEX
  5
ea
  8
Layer_3
  10
284.28015
  20
262.45044
  0
VERTEX
  5
eb
  8
Layer_3
  10
284.32709
  20
262.6037
  0
VERTEX
  5
ec
  8
Layer_3
  10
284.36786
  20
262.75867
  0
VERTEX
  5
ed
  8
Layer_3
  10
284.40247
  20
262.91528
  0
VERTEX
  5
ee
  8
Layer_3
  10
284.43079
  20
263.07288
  0
VERTEX
  5
ef
  8
Layer_3
  10
284.45294
  20
263.23163
  0
VERTEX
  5
f0
  8
Layer_3
  10
284.46875
  20
263.39117
  0
VERTEX
  5
f1
  8
Layer_3
  10
284.47876
  20
263.55115
  0
VERTEX
  5
f2
  8
Layer_3
  10
284.48175
  20
263.7113
  0
VERTEX
  5
f3
  8
Layer_3
  10
284.47876
  20
263.87164
  0
VERTEX
  5
f4
  8
Layer_3
  10
284.46875
  20
264.03162
  0
VERTEX
  5
f5
  8
Layer_3
  10
284.45319
  20
264.19098
  0
VERTEX
  5
f6
  8
Layer_3
  10
284.43097
  20
264.34973
  0
VERTEX
  5
f7
  8
Layer_3
  10
284.40271
  20
264.50751
  0
VERTEX
  5
f8
  8
Layer_3
  10
284.36829
  20
264.66394
  0
VERTEX
  5
f9
  8
Layer_3
  10
284.32751
  20
264.81891
  0
VERTEX
  5
fa
  8
Layer_3
  10
284.28082
  20
264.97217
  0
VERTEX
  5
fb
  8
Layer_3
  10
284.22791
  20
265.1236
  0
VERTEX
  5
fc
  8
Layer_3
  10
284.16913
  20
265.27264
  0
VERTEX
  5
fd
  8
Layer_3
  10
284.10461
  20
265.41937
  0
VERTEX
  5
fe
  8
Layer_3
  10
284.0343
  20
265.56329
  0
VERTEX
  5
ff
  8
Layer_3
  10
283.95831
  20
265.70441
  0
VERTEX
  5
100
  8
Layer_3
  10
283.87677
  20
265.84241
  0
VERTEX
  5
101
  8
Layer_3
  10
283.78986
  20
265.97705
  0
VERTEX
  5
102
  8
Layer_3
  10
283.69775
  20
266.10809
  0
VERTEX
  5
103
  8
Layer_3
  10
283.60059
  20
266.2356
  0
VERTEX
  5
104
  8
Layer_3
  10
283.49823
  20
266.35895
  0
VERTEX
  5
105
  8
Layer_3
  10
283.39136
  20
266.47827
  0
VERTEX
  5
106
  8
Layer_3
  10
283.27966
  20
266.59332
  0
VERTEX
  5
107
  8
Layer_3
  10
283.1637
  20
266.7038
  0
VERTEX
  5
108
  8
Layer_3
  10
283.04327
  20
266.80951
  0
VERTEX
  5
109
  8
Layer_3
  10
282.91876
  20
266.91046
  0
VERTEX
  5
10a
  8
Layer_3
  10
282.79053
  20
267.00647
  0
VERTEX
  5
10b
  8
Layer_3
  10
282.65845
  20
267.09735
  0
VERTEX
  5
10c
  8
Layer_3
  10
282.52283
  20
267.18286
  0
VERTEX
  5
10d
  8
Layer_3
  10
282.38409
  20
267.26282
  0
VERTEX
  5
10e
  8
Layer_3
  10
282.24213
  20
267.33746
  0
VERTEX
  5
10f
  8
Layer_3
  10
282.0976
  20
267.40637
  0
VERTEX
  5
110
  8
Layer_3
  10
281.95032
  20
267.46954
  0
VERTEX
  5
111
  8
Layer_3
  10
281.80048
  20
267.52673
  0
VERTEX
  5
112
  8
Layer_3
  10
281.6488
  20
267.578
  0
VERTEX
  5
113
  8
Layer_3
  10
281.495
  20
267.62335
  0
VERTEX
  5
114
  8
Layer_3
  10
281.3396
  20
267.66257
  0
VERTEX
  5
115
  8
Layer_3
  10
281.1828
  20
267.6954
  0
VERTEX
  5
116
  8
Layer_3
  10
281.02484
  20
267.72214
  0
VERTEX
  5
117
  8
Layer_3
  10
280.86584
  20
267.74277
  0
VERTEX
  5
118
  8
Layer_3
  10
280.70612
  20
267.75681
  0
VERTEX
  5
119
  8
Layer_3
  10
280.54614
  20
267.76471
  0
VERTEX
  5
11a
  8
Layer_3
  10
280.42719
  20
267.76648
  0
VERTEX
  5
11b
  8
Layer_3
  10
273.88971
  20
267.76648
  0
VERTEX
  5
11c
  8
Layer_3
  10
282.93481
  20
294.89172
  0
VERTEX
  5
11d
  8
Layer_3
  10
282.98254
  20
295.04456
  0
VERTEX
  5
11e
  8
Layer_3
  10
283.02411
  20
295.1994
  0
VERTEX
  5
11f
  8
Layer_3
  10
283.05951
  20
295.35577
  0
VERTEX
  5
120
  8
Layer_3
  10
283.08881
  20
295.51318
  0
VERTEX
  5
121
  8
Layer_3
  10
283.11182
  20
295.67194
  0
VERTEX
  5
122
  8
Layer_3
  10
283.12866
  20
295.8313
  0
VERTEX
  5
123
  8
Layer_3
  10
283.13898
  20
295.99127
  0
VERTEX
  5
124
  8
Layer_3
  10
283.14294
  20
296.15143
  0
VERTEX
  5
125
  8
Layer_3
  10
283.14093
  20
296.31158
  0
VERTEX
  5
126
  8
Layer_3
  10
283.13196
  20
296.47174
  0
VERTEX
  5
127
  8
Layer_3
  10
283.11694
  20
296.63129
  0
VERTEX
  5
128
  8
Layer_3
  10
283.0957
  20
296.79004
  0
VERTEX
  5
129
  8
Layer_3
  10
283.06842
  20
296.94781
  0
VERTEX
  5
12a
  8
Layer_3
  10
283.03448
  20
297.10461
  0
VERTEX
  5
12b
  8
Layer_3
  10
282.99469
  20
297.25983
  0
VERTEX
  5
12c
  8
Layer_3
  10
282.94879
  20
297.41327
  0
VERTEX
  5
12d
  8
Layer_3
  10
282.89673
  20
297.56488
  0
VERTEX
  5
12e
  8
Layer_3
  10
282.83893
  20
297.71436
  0
VERTEX
  5
12f
  8
Layer_3
  10
282.77521
  20
297.86127
  0
VERTEX
  5
130
  8
Layer_3
  10
282.70551
  20
298.0058
  0
VERTEX
  5
131
  8
Layer_3
  10
282.63031
  20
298.14734
  0
SEQEND
  0
POLYLINE
  5
133
  8
Layer_3
  62
52
  66
1
  10
0
  20
0
  30
0
  0
VERTEX
  5
133
  8
Layer_3
  10
281.20306
  20
299.63348
  0
VERTEX
  5
134
  8
Layer_3
  10
281.06464
  20
299.71417
  0
VERTEX
  5
135
  8
Layer_3
  10
280.92334
  20
299.78958
  0
VERTEX
  5
136
  8
Layer_3
  10
280.77899
  20
299.85919
  0
VERTEX
  5
137
  8
Layer_3
  10
280.63208
  20
299.92319
  0
VERTEX
  5
138
  8
Layer_3
  10
280.48267
  20
299.9812
  0
VERTEX
  5
139
  8
Layer_3
  10
280.33118
  20
300.03329
  0
VERTEX
  5
13a
  8
Layer_3
  10
280.17755
  20
300.07941
  0
VERTEX
  5
13b
  8
Layer_3
  10
280.02234
  20
300.11938
  0
VERTEX
  5
13c
  8
Layer_3
  10
279.86578
  20
300.15329
  0
VERTEX
  5
13d
  8
Layer_3
  10
279.70801
  20
300.181
  0
VERTEX
  5
13e
  8
Layer_3
  10
279.54919
  20
300.20221
  0
VERTEX
  5
13f
  8
Layer_3
  10
279.38965
  20
300.21729
  0
VERTEX
  5
140
  8
Layer_3
  10
279.22949
  20
300.22629
  0
VERTEX
  5
141
  8
Layer_3
  10
279.08521
  20
300.2283
  0
VERTEX
  5
142
  8
Layer_3
  10
247.17784
  20
300.20111
  0
VERTEX
  5
143
  8
Layer_3
  10
247.01747
  20
300.19809
  0
VERTEX
  5
144
  8
Layer_3
  10
246.85753
  20
300.18811
  0
VERTEX
  5
145
  8
Layer_3
  10
246.69817
  20
300.17209
  0
VERTEX
  5
146
  8
Layer_3
  10
246.53938
  20
300.1499
  0
VERTEX
  5
147
  8
Layer_3
  10
246.38161
  20
300.1214
  0
VERTEX
  5
148
  8
Layer_3
  10
246.2252
  20
300.08679
  0
VERTEX
  5
149
  8
Layer_3
  10
246.07021
  20
300.04578
  0
VERTEX
  5
14a
  8
Layer_3
  10
245.91698
  20
299.9989
  0
VERTEX
  5
14b
  8
Layer_3
  10
245.76573
  20
299.9458
  0
VERTEX
  5
14c
  8
Layer_3
  10
245.61687
  20
299.88699
  0
VERTEX
  5
14d
  8
Layer_3
  10
245.47017
  20
299.8222
  0
VERTEX
  5
14e
  8
Layer_3
  10
245.32625
  20
299.7518
  0
VERTEX
  5
14f
  8
Layer_3
  10
245.18529
  20
299.6756
  0
VERTEX
  5
150
  8
Layer_3
  10
245.04732
  20
299.59399
  0
VERTEX
  5
151
  8
Layer_3
  10
244.9127
  20
299.50702
  0
VERTEX
  5
152
  8
Layer_3
  10
244.78185
  20
299.4147
  0
VERTEX
  5
153
  8
Layer_3
  10
244.65459
  20
299.31732
  0
VERTEX
  5
154
  8
Layer_3
  10
244.5312
  20
299.21515
  0
VERTEX
  5
155
  8
Layer_3
  10
244.41203
  20
299.10791
  0
VERTEX
  5
156
  8
Layer_3
  10
244.29701
  20
298.99622
  0
VERTEX
  5
157
  8
Layer_3
  10
244.18675
  20
298.88
  0
VERTEX
  5
158
  8
Layer_3
  10
244.08104
  20
298.75946
  0
VERTEX
  5
159
  8
Layer_3
  10
243.98027
  20
298.63495
  0
VERTEX
  5
15a
  8
Layer_3
  10
243.88448
  20
298.50647
  0
VERTEX
  5
15b
  8
Layer_3
  10
243.79378
  20
298.37439
  0
VERTEX
  5
15c
  8
Layer_3
  10
243.7083
  20
298.23883
  0
VERTEX
  5
15d
  8
Layer_3
  10
243.62828
  20
298.09985
  0
VERTEX
  5
15e
  8
Layer_3
  10
243.55388
  20
297.95789
  0
VERTEX
  5
15f
  8
Layer_3
  10
243.48518
  20
297.81317
  0
VERTEX
  5
160
  8
Layer_3
  10
243.4222
  20
297.66589
  0
VERTEX
  5
161
  8
Layer_3
  10
243.36519
  20
297.51605
  0
VERTEX
  5
162
  8
Layer_3
  10
243.30818
  20
297.34576
  0
VERTEX
  5
163
  8
Layer_3
  10
230.75487
  20
256.80206
  0
VERTEX
  5
164
  8
Layer_3
  10
230.71046
  20
256.64825
  0
VERTEX
  5
165
  8
Layer_3
  10
230.67226
  20
256.49243
  0
VERTEX
  5
166
  8
Layer_3
  10
230.64015
  20
256.33545
  0
VERTEX
  5
167
  8
Layer_3
  10
230.61446
  20
256.17731
  0
VERTEX
  5
168
  8
Layer_3
  10
230.59486
  20
256.01831
  0
VERTEX
  5
169
  8
Layer_3
  10
230.58165
  20
255.85858
  0
VERTEX
  5
16a
  8
Layer_3
  10
230.57466
  20
255.69843
  0
VERTEX
  5
16b
  8
Layer_3
  10
230.57405
  20
255.53827
  0
VERTEX
  5
16c
  8
Layer_3
  10
230.58003
  20
255.37811
  0
VERTEX
  5
16d
  8
Layer_3
  10
230.59193
  20
255.21832
  0
VERTEX
  5
16e
  8
Layer_3
  10
230.61034
  20
255.05914
  0
VERTEX
  5
16f
  8
Layer_3
  10
230.63506
  20
254.90082
  0
VERTEX
  5
170
  8
Layer_3
  10
230.66576
  20
254.74341
  0
VERTEX
  5
171
  8
Layer_3
  10
230.70296
  20
254.58759
  0
VERTEX
  5
172
  8
Layer_3
  10
230.74614
  20
254.43317
  0
VERTEX
  5
173
  8
Layer_3
  10
230.79546
  20
254.28076
  0
VERTEX
  5
174
  8
Layer_3
  10
230.85066
  20
254.13031
  0
VERTEX
  5
175
  8
Layer_3
  10
230.91185
  20
253.98224
  0
VERTEX
  5
176
  8
Layer_3
  10
230.97874
  20
253.83655
  0
VERTEX
  5
177
  8
Layer_3
  10
231.05144
  20
253.69379
  0
SEQEND
  0
POLYLINE
  5
179
  8
Layer_3
  62
52
  66
1
  10
0
  20
0
  30
0
  0
VERTEX
  5
179
  8
Layer_3
  10
107.57513
  20
270.92902
  42
0.0019877714
  0
VERTEX
  5
17a
  8
Layer_3
  10
107.58704
  20
270.2121
  0
VERTEX
  5
17b
  8
Layer_3
  10
107.59003
  20
270.10895
  0
VERTEX
  5
17c
  8
Layer_3
  10
107.61623
  20
269.49323
  0
VERTEX
  5
17d
  8
Layer_3
  10
107.62223
  20
269.39056
  0
VERTEX
  5
17e
  8
Layer_3
  10
107.66323
  20
268.77466
  0
VERTEX
  5
17f
  8
Layer_3
  10
107.67123
  20
268.67108
  0
VERTEX
  5
180
  8
Layer_3
  10
107.72733
  20
268.05481
  0
VERTEX
  5
181
  8
Layer_3
  10
107.73824
  20
267.95001
  0
VERTEX
  5
182
  8
Layer_3
  10
107.80953
  20
267.33392
  0
VERTEX
  5
183
  8
Layer_3
  10
107.82253
  20
267.23285
  0
VERTEX
  5
184
  8
Layer_3
  10
107.90873
  20
266.61719
  0
VERTEX
  5
185
  8
Layer_3
  10
107.92463
  20
266.51239
  0
VERTEX
  5
186
  8
Layer_3
  10
108.0263
  20
265.89734
  0
VERTEX
  5
187
  8
Layer_3
  10
108.0449
  20
265.7934
  0
VERTEX
  5
188
  8
Layer_3
  10
108.16204
  20
265.1792
  0
VERTEX
  5
189
  8
Layer_3
  10
108.18274
  20
265.07751
  0
VERTEX
  5
18a
  8
Layer_3
  10
108.31517
  20
264.46436
  0
VERTEX
  5
18b
  8
Layer_3
  10
108.33837
  20
264.36206
  0
VERTEX
  5
18c
  8
Layer_3
  10
108.48627
  20
263.75018
  0
VERTEX
  5
18d
  8
Layer_3
  10
108.51267
  20
263.64703
  0
VERTEX
  5
18e
  8
Layer_3
  10
108.67626
  20
263.03699
  0
VERTEX
  5
18f
  8
Layer_3
  10
108.70496
  20
262.93536
  0
VERTEX
  5
190
  8
Layer_3
  10
108.88425
  20
262.32721
  0
VERTEX
  5
191
  8
Layer_3
  10
108.91566
  20
262.22528
  0
VERTEX
  5
192
  8
Layer_3
  10
109.11084
  20
261.61926
  0
VERTEX
  5
193
  8
Layer_3
  10
109.14414
  20
261.5199
  0
VERTEX
  5
194
  8
Layer_3
  10
109.35501
  20
260.91614
  0
VERTEX
  5
195
  8
Layer_3
  10
109.39181
  20
260.81512
  0
VERTEX
  5
196
  8
Layer_3
  10
109.6188
  20
260.21405
  0
VERTEX
  5
197
  8
Layer_3
  10
109.65749
  20
260.11536
  0
VERTEX
  5
198
  8
Layer_3
  10
109.90038
  20
259.51746
  0
VERTEX
  5
199
  8
Layer_3
  10
109.94177
  20
259.4187
  0
VERTEX
  5
19a
  8
Layer_3
  10
110.20097
  20
258.82373
  0
VERTEX
  5
19b
  8
Layer_3
  10
110.24467
  20
258.72687
  0
VERTEX
  5
19c
  8
Layer_3
  10
110.51997
  20
258.1355
  0
VERTEX
  5
19d
  8
Layer_3
  10
110.58337
  20
258.00494
  0
VERTEX
  5
19e
  8
Layer_3
  10
111.05092
  20
257.08344
  0
VERTEX
  5
19f
  8
Layer_3
  10
111.13162
  20
256.93195
  0
VERTEX
  5
1a0
  8
Layer_3
  10
111.63432
  20
256.03241
  0
VERTEX
  5
1a1
  8
Layer_3
  10
111.72073
  20
255.88495
  0
VERTEX
  5
1a2
  8
Layer_3
  10
112.25752
  20
255.00842
  0
VERTEX
  5
1a3
  8
Layer_3
  10
112.34912
  20
254.8653
  0
VERTEX
  5
1a4
  8
Layer_3
  10
112.91918
  20
254.01239
  0
VERTEX
  5
1a5
  8
Layer_3
  10
113.01708
  20
253.87225
  0
VERTEX
  5
1a6
  8
Layer_3
  10
113.61979
  20
253.04401
  0
VERTEX
  5
1a7
  8
Layer_3
  10
113.72208
  20
252.90912
  0
VERTEX
  5
1a8
  8
Layer_3
  10
114.35638
  20
252.1062
  0
VERTEX
  5
1a9
  8
Layer_3
  10
114.46494
  20
251.97418
  0
VERTEX
  5
1aa
  8
Layer_3
  10
115.1302
  20
251.19788
  0
VERTEX
  5
1ab
  8
Layer_3
  10
115.24252
  20
251.07196
  0
VERTEX
  5
1ac
  8
Layer_3
  10
115.93748
  20
250.32281
  0
VERTEX
  5
1ad
  8
Layer_3
  10
116.05589
  20
250.20001
  0
VERTEX
  5
1ae
  8
Layer_3
  10
116.78033
  20
249.47888
  0
VERTEX
  5
1af
  8
Layer_3
  10
116.90273
  20
249.36194
  0
VERTEX
  5
1b0
  8
Layer_3
  10
117.6552
  20
248.66992
  0
VERTEX
  5
1b1
  8
Layer_3
  10
117.78239
  20
248.55737
  0
VERTEX
  5
1b2
  8
Layer_3
  10
118.56229
  20
247.89526
  0
VERTEX
  5
1b3
  8
Layer_3
  10
118.6945
  20
247.78729
  0
VERTEX
  5
1b4
  8
Layer_3
  10
119.50117
  20
247.15594
  0
VERTEX
  5
1b5
  8
Layer_3
  10
119.63736
  20
247.05389
  0
VERTEX
  5
1b6
  8
Layer_3
  10
120.46976
  20
246.4541
  0
VERTEX
  5
1b7
  8
Layer_3
  10
120.6095
  20
246.35767
  0
VERTEX
  5
1b8
  8
Layer_3
  10
121.33269
  20
245.87903
  0
VERTEX
  5
1b9
  8
Layer_3
  10
121.33269
  20
242.36115
  0
VERTEX
  5
1ba
  8
Layer_3
  10
121.33569
  20
242.19189
  0
VERTEX
  5
1bb
  8
Layer_3
  10
121.34569
  20
242.02289
  0
VERTEX
  5
1bc
  8
Layer_3
  10
121.36239
  20
241.85425
  0
VERTEX
  5
1bd
  8
Layer_3
  10
121.3626
  20
241.85266
  0
VERTEX
  5
1be
  8
Layer_3
  10
121.3392
  20
241.71393
  0
VERTEX
  5
1bf
  8
Layer_3
  10
121.3176
  20
241.54596
  0
VERTEX
  5
1c0
  8
Layer_3
  10
121.30251
  20
241.37732
  0
VERTEX
  5
1c1
  8
Layer_3
  10
121.2945
  20
241.20813
  0
VERTEX
  5
1c2
  8
Layer_3
  10
121.2925
  20
241.08325
  0
VERTEX
  5
1c3
  8
Layer_3
  10
121.2925
  20
236.79883
  0
VERTEX
  5
1c4
  8
Layer_3
  10
121.2955
  20
236.62958
  0
VERTEX
  5
1c5
  8
Layer_3
  10
121.3055
  20
236.46057
  0
VERTEX
  5
1c6
  8
Layer_3
  10
121.3222
  20
236.29193
  0
VERTEX
  5
1c7
  8
Layer_3
  10
121.34041
  20
236.16101
  0
VERTEX
  5
1c8
  8
Layer_3
  10
121.33841
  20
236.15161
  0
VERTEX
  5
1c9
  8
Layer_3
  10
121.31681
  20
235.98358
  0
VERTEX
  5
1ca
  8
Layer_3
  10
121.30171
  20
235.815
  0
VERTEX
  5
1cb
  8
Layer_3
  10
121.29371
  20
235.64575
  0
VERTEX
  5
1cc
  8
Layer_3
  10
121.29171
  20
235.52087
  0
VERTEX
  5
1cd
  8
Layer_3
  10
121.29171
  20
231.23645
  0
VERTEX
  5
1ce
  8
Layer_3
  10
121.29471
  20
231.06726
  0
VERTEX
  5
1cf
  8
Layer_3
  10
121.30471
  20
230.89819
  0
VERTEX
  5
1d0
  8
Layer_3
  10
121.32141
  20
230.72961
  0
VERTEX
  5
1d1
  8
Layer_3
  10
121.33621
  20
230.6225
  0
VERTEX
  5
1d2
  8
Layer_3
  10
121.33022
  20
230.58923
  0
VERTEX
  5
1d3
  8
Layer_3
  10
121.30872
  20
230.42126
  0
VERTEX
  5
1d4
  8
Layer_3
  10
121.29362
  20
230.25262
  0
VERTEX
  5
1d5
  8
Layer_3
  10
121.28561
  20
230.08337
  0
VERTEX
  5
1d6
  8
Layer_3
  10
121.28362
  20
229.9585
  0
VERTEX
  5
1d7
  8
Layer_3
  10
121.28362
  20
225.67413
  0
VERTEX
  5
1d8
  8
Layer_3
  10
121.28661
  20
225.50488
  0
VERTEX
  5
1d9
  8
Layer_3
  10
121.29662
  20
225.33588
  0
VERTEX
  5
1da
  8
Layer_3
  10
121.31332
  20
225.16724
  0
VERTEX
  5
1db
  8
Layer_3
  10
121.33652
  20
224.99945
  0
VERTEX
  5
1dc
  8
Layer_3
  10
121.36662
  20
224.83295
  0
VERTEX
  5
1dd
  8
Layer_3
  10
121.40302
  20
224.66748
  0
VERTEX
  5
1de
  8
Layer_3
  10
121.44611
  20
224.50366
  0
VERTEX
  5
1df
  8
Layer_3
  10
121.49571
  20
224.34174
  0
VERTEX
  5
1e0
  8
Layer_3
  10
121.55132
  20
224.18188
  0
VERTEX
  5
1e1
  8
Layer_3
  10
121.61342
  20
224.02441
  0
VERTEX
  5
1e2
  8
Layer_3
  10
121.68182
  20
223.86938
  0
VERTEX
  5
1e3
  8
Layer_3
  10
121.75612
  20
223.71729
  0
VERTEX
  5
1e4
  8
Layer_3
  10
121.83642
  20
223.56812
  0
VERTEX
  5
1e5
  8
Layer_3
  10
121.92262
  20
223.4223
  0
VERTEX
  5
1e6
  8
Layer_3
  10
122.01441
  20
223.28009
  0
VERTEX
  5
1e7
  8
Layer_3
  10
122.11171
  20
223.1416
  0
VERTEX
  5
1e8
  8
Layer_3
  10
122.21464
  20
223.00684
  0
VERTEX
  5
1e9
  8
Layer_3
  10
122.32258
  20
222.87653
  0
VERTEX
  5
1ea
  8
Layer_3
  10
122.43576
  20
222.75037
  0
VERTEX
  5
1eb
  8
Layer_3
  10
122.55375
  20
222.62903
  0
VERTEX
  5
1ec
  8
Layer_3
  10
122.67634
  20
222.51233
  0
VERTEX
  5
1ed
  8
Layer_3
  10
122.80353
  20
222.40039
  0
VERTEX
  5
1ee
  8
Layer_3
  10
122.9351
  20
222.2937
  0
VERTEX
  5
1ef
  8
Layer_3
  10
123.07067
  20
222.19244
  0
VERTEX
  5
1f0
  8
Layer_3
  10
123.21041
  20
222.09644
  0
VERTEX
  5
1f1
  8
Layer_3
  10
123.3535
  20
222.00604
  0
VERTEX
  5
1f2
  8
Layer_3
  10
123.50015
  20
221.92151
  0
VERTEX
  5
1f3
  8
Layer_3
  10
123.65014
  20
221.84265
  0
VERTEX
  5
1f4
  8
Layer_3
  10
123.80305
  20
221.7699
  0
VERTEX
  5
1f5
  8
Layer_3
  10
123.84635
  20
221.75122
  0
VERTEX
  5
1f6
  8
Layer_3
  10
129.2334
  20
217.90344
  0
VERTEX
  5
1f7
  8
Layer_3
  10
129.37314
  20
217.80768
  0
VERTEX
  5
1f8
  8
Layer_3
  10
129.51666
  20
217.71771
  0
VERTEX
  5
1f9
  8
Layer_3
  10
129.66351
  20
217.63318
  0
VERTEX
  5
1fa
  8
Layer_3
  10
129.81351
  20
217.55475
  0
VERTEX
  5
1fb
  8
Layer_3
  10
129.96643
  20
217.48236
  0
VERTEX
  5
1fc
  8
Layer_3
  10
130.12225
  20
217.41583
  0
VERTEX
  5
1fd
  8
Layer_3
  10
130.28064
  20
217.35577
  0
VERTEX
  5
1fe
  8
Layer_3
  10
130.4411
  20
217.30182
  0
VERTEX
  5
1ff
  8
Layer_3
  10
130.60364
  20
217.25433
  0
VERTEX
  5
200
  8
Layer_3
  10
130.76807
  20
217.21332
  0
VERTEX
  5
201
  8
Layer_3
  10
130.93378
  20
217.17883
  0
VERTEX
  5
202
  8
Layer_3
  10
131.10092
  20
217.151
  0
VERTEX
  5
203
  8
Layer_3
  10
131.26889
  20
217.12964
  0
VERTEX
  5
204
  8
Layer_3
  10
131.4375
  20
217.11499
  0
VERTEX
  5
205
  8
Layer_3
  10
131.60675
  20
217.10709
  0
VERTEX
  5
206
  8
Layer_3
  10
131.72366
  20
217.1055
  0
VERTEX
  5
207
  8
Layer_3
  10
143.71991
  20
217.1055
  0
VERTEX
  5
208
  8
Layer_3
  10
143.88916
  20
217.10889
  0
VERTEX
  5
209
  8
Layer_3
  10
144.0582
  20
217.1189
  0
VERTEX
  5
20a
  8
Layer_3
  10
144.22681
  20
217.13562
  0
VERTEX
  5
20b
  8
Layer_3
  10
144.39459
  20
217.15887
  0
VERTEX
  5
20c
  8
Layer_3
  10
144.5611
  20
217.18896
  0
VERTEX
  5
20d
  8
Layer_3
  10
144.72656
  20
217.22534
  0
VERTEX
  5
20e
  8
Layer_3
  10
144.89038
  20
217.26849
  0
VERTEX
  5
20f
  8
Layer_3
  10
145.05231
  20
217.31805
  0
VERTEX
  5
210
  8
Layer_3
  10
145.21213
  20
217.37372
  0
VERTEX
  5
211
  8
Layer_3
  10
145.36966
  20
217.43585
  0
VERTEX
  5
212
  8
Layer_3
  10
145.52466
  20
217.50421
  0
VERTEX
  5
213
  8
Layer_3
  10
145.67676
  20
217.57849
  0
VERTEX
  5
214
  8
Layer_3
  10
145.8259
  20
217.65881
  0
VERTEX
  5
215
  8
Layer_3
  10
145.97171
  20
217.745
  0
VERTEX
  5
216
  8
Layer_3
  10
146.11398
  20
217.83685
  0
VERTEX
  5
217
  8
Layer_3
  10
146.21017
  20
217.90356
  0
VERTEX
  5
218
  8
Layer_3
  10
152.20828
  20
222.18799
  0
VERTEX
  5
219
  8
Layer_3
  10
152.34406
  20
222.289
  0
VERTEX
  5
21a
  8
Layer_3
  10
152.47583
  20
222.39551
  0
VERTEX
  5
21b
  8
Layer_3
  10
152.60324
  20
222.50696
  0
VERTEX
  5
21c
  8
Layer_3
  10
152.72604
  20
222.62354
  0
VERTEX
  5
21d
  8
Layer_3
  10
152.84424
  20
222.74487
  0
VERTEX
  5
21e
  8
Layer_3
  10
152.95761
  20
222.87061
  0
VERTEX
  5
21f
  8
Layer_3
  10
153.06598
  20
223.00092
  0
VERTEX
  5
220
  8
Layer_3
  10
153.16891
  20
223.13519
  0
VERTEX
  5
221
  8
Layer_3
  10
153.26663
  20
223.2735
  0
VERTEX
  5
222
  8
Layer_3
  10
153.35873
  20
223.41577
  0
VERTEX
  5
223
  8
Layer_3
  10
153.44513
  20
223.56134
  0
VERTEX
  5
224
  8
Layer_3
  10
153.52563
  20
223.71033
  0
VERTEX
  5
225
  8
Layer_3
  10
153.60034
  20
223.86237
  0
VERTEX
  5
226
  8
Layer_3
  10
153.66895
  20
224.01721
  0
VERTEX
  5
227
  8
Layer_3
  10
153.73132
  20
224.1745
  0
VERTEX
  5
228
  8
Layer_3
  10
153.78763
  20
224.33435
  0
VERTEX
  5
229
  8
Layer_3
  10
153.83743
  20
224.49628
  0
VERTEX
  5
22a
  8
Layer_3
  10
153.88074
  20
224.65985
  0
VERTEX
  5
22b
  8
Layer_3
  10
153.91754
  20
224.82513
  0
VERTEX
  5
22c
  8
Layer_3
  10
153.94785
  20
224.99182
  0
VERTEX
  5
22d
  8
Layer_3
  10
153.97147
  20
225.15942
  0
VERTEX
  5
22e
  8
Layer_3
  10
153.98846
  20
225.328
  0
VERTEX
  5
22f
  8
Layer_3
  10
153.99866
  20
225.49707
  0
VERTEX
  5
230
  8
Layer_3
  10
154.00266
  20
225.66632
  0
VERTEX
  5
231
  8
Layer_3
  10
153.99963
  20
225.83575
  0
VERTEX
  5
232
  8
Layer_3
  10
153.98965
  20
226.00476
  0
VERTEX
  5
233
  8
Layer_3
  10
153.97336
  20
226.17316
  0
VERTEX
  5
234
  8
Layer_3
  10
153.95016
  20
226.34094
  0
VERTEX
  5
235
  8
Layer_3
  10
153.92065
  20
226.50769
  0
VERTEX
  5
236
  8
Layer_3
  10
153.88446
  20
226.67316
  0
VERTEX
  5
237
  8
Layer_3
  10
153.84427
  20
226.82654
  0
VERTEX
  5
238
  8
Layer_3
  10
153.84427
  20
229.95862
  0
VERTEX
  5
239
  8
Layer_3
  10
153.84125
  20
230.12787
  0
VERTEX
  5
23a
  8
Layer_3
  10
153.83127
  20
230.29688
  0
VERTEX
  5
23b
  8
Layer_3
  10
153.81458
  20
230.46552
  0
VERTEX
  5
23c
  8
Layer_3
  10
153.79977
  20
230.57263
  0
VERTEX
  5
23d
  8
Layer_3
  10
153.80576
  20
230.60588
  0
VERTEX
  5
23e
  8
Layer_3
  10
153.82727
  20
230.77385
  0
VERTEX
  5
23f
  8
Layer_3
  10
153.84238
  20
230.94249
  0
VERTEX
  5
240
  8
Layer_3
  10
153.85037
  20
231.11168
  0
VERTEX
  5
241
  8
Layer_3
  10
153.85236
  20
231.23656
  0
VERTEX
  5
242
  8
Layer_3
  10
153.85236
  20
235.521
  0
VERTEX
  5
243
  8
Layer_3
  10
153.84937
  20
235.69019
  0
VERTEX
  5
244
  8
Layer_3
  10
153.83936
  20
235.85925
  0
VERTEX
  5
245
  8
Layer_3
  10
153.82266
  20
236.02783
  0
VERTEX
  5
246
  8
Layer_3
  10
153.80447
  20
236.15881
  0
VERTEX
  5
247
  8
Layer_3
  10
153.80646
  20
236.16821
  0
VERTEX
  5
248
  8
Layer_3
  10
153.82797
  20
236.33624
  0
VERTEX
  5
249
  8
Layer_3
  10
153.84308
  20
236.50482
  0
VERTEX
  5
24a
  8
Layer_3
  10
153.85107
  20
236.67407
  0
VERTEX
  5
24b
  8
Layer_3
  10
153.85306
  20
236.79895
  0
VERTEX
  5
24c
  8
Layer_3
  10
153.85306
  20
241.08334
  0
VERTEX
  5
24d
  8
Layer_3
  10
153.85007
  20
241.25253
  0
VERTEX
  5
24e
  8
Layer_3
  10
153.84006
  20
241.4216
  0
VERTEX
  5
24f
  8
Layer_3
  10
153.82336
  20
241.59018
  0
VERTEX
  5
250
  8
Layer_3
  10
153.82315
  20
241.59189
  0
VERTEX
  5
251
  8
Layer_3
  10
153.84656
  20
241.73056
  0
VERTEX
  5
252
  8
Layer_3
  10
153.86807
  20
241.89853
  0
VERTEX
  5
253
  8
Layer_3
  10
153.88318
  20
242.06717
  0
VERTEX
  5
254
  8
Layer_3
  10
153.89117
  20
242.23642
  0
VERTEX
  5
255
  8
Layer_3
  10
153.89316
  20
242.3613
  0
VERTEX
  5
256
  8
Layer_3
  10
153.89316
  20
245.91977
  0
VERTEX
  5
257
  8
Layer_3
  10
154.40131
  20
246.25552
  0
VERTEX
  5
258
  8
Layer_3
  10
154.48892
  20
246.31491
  0
VERTEX
  5
259
  8
Layer_3
  10
155.01358
  20
246.68063
  0
VERTEX
  5
25a
  8
Layer_3
  10
155.1004
  20
246.74277
  0
VERTEX
  5
25b
  8
Layer_3
  10
155.61356
  20
247.11972
  0
VERTEX
  5
25c
  8
Layer_3
  10
155.69827
  20
247.1835
  0
VERTEX
  5
25d
  8
Layer_3
  10
156.19971
  20
247.57138
  0
VERTEX
  5
25e
  8
Layer_3
  10
156.28281
  20
247.63748
  0
VERTEX
  5
25f
  8
Layer_3
  10
156.77274
  20
248.03622
  0
VERTEX
  5
260
  8
Layer_3
  10
156.85306
  20
248.10312
  0
VERTEX
  5
261
  8
Layer_3
  10
157.33148
  20
248.51236
  0
VERTEX
  5
262
  8
Layer_3
  10
157.41116
  20
248.58224
  0
VERTEX
  5
263
  8
Layer_3
  10
157.87747
  20
249.00143
  0
VERTEX
  5
264
  8
Layer_3
  10
157.95468
  20
249.0726
  0
VERTEX
  5
265
  8
Layer_3
  10
158.40945
  20
249.50204
  0
VERTEX
  5
266
  8
Layer_3
  10
158.48456
  20
249.57468
  0
VERTEX
  5
267
  8
Layer_3
  10
158.92722
  20
250.01352
  0
VERTEX
  5
268
  8
Layer_3
  10
159.0015
  20
250.08908
  0
VERTEX
  5
269
  8
Layer_3
  10
159.43204
  20
250.53757
  0
VERTEX
  5
26a
  8
Layer_3
  10
159.50272
  20
250.61313
  0
VERTEX
  5
26b
  8
Layer_3
  10
159.92133
  20
251.07083
  0
VERTEX
  5
26c
  8
Layer_3
  10
159.98993
  20
251.14761
  0
VERTEX
  5
26d
  8
Layer_3
  10
160.39639
  20
251.61411
  0
VERTEX
  5
26e
  8
Layer_3
  10
160.46439
  20
251.69406
  0
VERTEX
  5
26f
  8
Layer_3
  10
160.85834
  20
252.1691
  0
VERTEX
  5
270
  8
Layer_3
  10
160.92294
  20
252.24924
  0
VERTEX
  5
271
  8
Layer_3
  10
161.30472
  20
252.73288
  0
VERTEX
  5
272
  8
Layer_3
  10
161.36752
  20
252.8143
  0
VERTEX
  5
273
  8
Layer_3
  10
161.73697
  20
253.30612
  0
VERTEX
  5
274
  8
Layer_3
  10
161.79828
  20
253.3898
  0
VERTEX
  5
275
  8
Layer_3
  10
162.15497
  20
253.88937
  0
VERTEX
  5
276
  8
Layer_3
  10
162.21295
  20
253.97263
  0
VERTEX
  5
277
  8
Layer_3
  10
162.55728
  20
254.47995
  0
VERTEX
  5
278
  8
Layer_3
  10
162.61398
  20
254.5657
  0
VERTEX
  5
279
  8
Layer_3
  10
162.94556
  20
255.08029
  0
VERTEX
  5
27a
  8
Layer_3
  10
162.99945
  20
255.16611
  0
VERTEX
  5
27b
  8
Layer_3
  10
163.3183
  20
255.68759
  0
VERTEX
  5
27c
  8
Layer_3
  10
163.37122
  20
255.7767
  0
VERTEX
  5
27d
  8
Layer_3
  10
163.67706
  20
256.30539
  0
VERTEX
  5
27e
  8
Layer_3
  10
163.72626
  20
256.39279
  0
VERTEX
  5
27f
  8
Layer_3
  10
164.01935
  20
256.92795
  0
VERTEX
  5
280
  8
Layer_3
  10
164.06705
  20
257.0173
  0
VERTEX
  5
281
  8
Layer_3
  10
164.34717
  20
257.55869
  0
VERTEX
  5
282
  8
Layer_3
  10
164.39276
  20
257.64969
  0
VERTEX
  5
283
  8
Layer_3
  10
164.65967
  20
258.19711
  0
VERTEX
  5
284
  8
Layer_3
  10
164.70297
  20
258.28836
  0
VERTEX
  5
285
  8
Layer_3
  10
164.95673
  20
258.84146
  0
VERTEX
  5
286
  8
Layer_3
  10
164.99713
  20
258.93246
  0
VERTEX
  5
287
  8
Layer_3
  10
165.23792
  20
259.49124
  0
VERTEX
  5
288
  8
Layer_3
  10
165.27762
  20
259.5864
  0
VERTEX
  5
289
  8
Layer_3
  10
165.50482
  20
260.1506
  0
VERTEX
  5
28a
  8
Layer_3
  10
165.54102
  20
260.24417
  0
VERTEX
  5
28b
  8
Layer_3
  10
165.75482
  20
260.8132
  0
VERTEX
  5
28c
  8
Layer_3
  10
165.78912
  20
260.90732
  0
VERTEX
  5
28d
  8
Layer_3
  10
165.98953
  20
261.48117
  0
VERTEX
  5
28e
  8
Layer_3
  10
166.02112
  20
261.57529
  0
VERTEX
  5
28f
  8
Layer_3
  10
166.20813
  20
262.15353
  0
VERTEX
  5
290
  8
Layer_3
  10
166.23843
  20
262.25119
  0
VERTEX
  5
291
  8
Layer_3
  10
166.41165
  20
262.83383
  0
VERTEX
  5
292
  8
Layer_3
  10
166.43927
  20
262.93063
  0
VERTEX
  5
293
  8
Layer_3
  10
166.59866
  20
263.51706
  0
VERTEX
  5
294
  8
Layer_3
  10
166.62396
  20
263.61514
  0
VERTEX
  5
295
  8
Layer_3
  10
166.76956
  20
264.20554
  0
VERTEX
  5
296
  8
Layer_3
  10
166.79236
  20
264.30258
  0
VERTEX
  5
297
  8
Layer_3
  10
166.92416
  20
264.89609
  0
VERTEX
  5
298
  8
Layer_3
  10
166.94464
  20
264.99399
  0
VERTEX
  5
299
  8
Layer_3
  10
167.06265
  20
265.59079
  0
VERTEX
  5
29a
  8
Layer_3
  10
167.08124
  20
265.69168
  0
VERTEX
  5
29b
  8
Layer_3
  10
167.185
  20
266.29166
  0
VERTEX
  5
29c
  8
Layer_3
  10
167.2009
  20
266.39035
  0
VERTEX
  5
29d
  8
Layer_3
  10
167.29062
  20
266.99265
  0
VERTEX
  5
29e
  8
Layer_3
  10
167.30463
  20
267.09476
  0
VERTEX
  5
29f
  8
Layer_3
  10
167.37991
  20
267.69974
  0
VERTEX
  5
2a0
  8
Layer_3
  10
167.39102
  20
267.79846
  0
VERTEX
  5
2a1
  8
Layer_3
  10
167.4523
  20
268.40533
  0
VERTEX
  5
2a2
  8
Layer_3
  10
167.4613
  20
268.5072
  0
VERTEX
  5
2a3
  8
Layer_3
  10
167.50821
  20
269.11621
  0
VERTEX
  5
2a4
  8
Layer_3
  10
167.51422
  20
269.21765
  0
VERTEX
  5
2a5
  8
Layer_3
  10
167.54672
  20
269.82831
  0
VERTEX
  5
2a6
  8
Layer_3
  10
167.55072
  20
269.93103
  0
VERTEX
  5
2a7
  8
Layer_3
  10
167.56851
  20
270.54272
  0
VERTEX
  5
2a8
  8
Layer_3
  10
167.57053
  20
270.6452
  0
VERTEX
  5
2a9
  8
Layer_3
  10
167.57352
  20
271.25836
  0
SEQEND
  0
POLYLINE
  5
2ab
  8
Layer_3
  62
52
  66
1
  10
0
  20
0
  30
0
  0
VERTEX
  5
2ab
  8
Layer_3
  10
167.47868
  20
273.51129
  0
VERTEX
  5
2ac
  8
Layer_3
  10
167.42258
  20
274.1261
  0
VERTEX
  5
2ad
  8
Layer_3
  10
167.41208
  20
274.22821
  0
VERTEX
  5
2ae
  8
Layer_3
  10
167.34117
  20
274.84283
  0
VERTEX
  5
2af
  8
Layer_3
  10
167.32777
  20
274.94696
  0
VERTEX
  5
2b0
  8
Layer_3
  10
167.24158
  20
275.56122
  0
VERTEX
  5
2b1
  8
Layer_3
  10
167.22607
  20
275.6637
  0
VERTEX
  5
2b2
  8
Layer_3
  10
167.12485
  20
276.27704
  0
VERTEX
  5
2b3
  8
Layer_3
  10
167.10645
  20
276.37982
  0
VERTEX
  5
2b4
  8
Layer_3
  10
166.98993
  20
276.99231
  0
VERTEX
  5
2b5
  8
Layer_3
  10
166.96922
  20
277.0946
  0
VERTEX
  5
2b6
  8
Layer_3
  10
166.83745
  20
277.70587
  0
VERTEX
  5
2b7
  8
Layer_3
  10
166.81375
  20
277.80902
  0
VERTEX
  5
2b8
  8
Layer_3
  10
166.66647
  20
278.41864
  0
VERTEX
  5
2b9
  8
Layer_3
  10
166.64078
  20
278.52029
  0
VERTEX
  5
2ba
  8
Layer_3
  10
166.47803
  20
279.12839
  0
VERTEX
  5
2bb
  8
Layer_3
  10
166.44913
  20
279.23114
  0
VERTEX
  5
2bc
  8
Layer_3
  10
166.27066
  20
279.83694
  0
VERTEX
  5
2bd
  8
Layer_3
  10
166.23996
  20
279.93677
  0
VERTEX
  5
2be
  8
Layer_3
  10
166.04602
  20
280.54053
  0
VERTEX
  5
2bf
  8
Layer_3
  10
166.01192
  20
280.6424
  0
VERTEX
  5
2c0
  8
Layer_3
  10
165.80208
  20
281.24341
  0
VERTEX
  5
2c1
  8
Layer_3
  10
165.76628
  20
281.34198
  0
VERTEX
  5
2c2
  8
Layer_3
  10
165.54076
  20
281.94052
  0
VERTEX
  5
2c3
  8
Layer_3
  10
165.50125
  20
282.04153
  0
VERTEX
  5
2c4
  8
Layer_3
  10
165.25961
  20
282.63669
  0
VERTEX
  5
2c5
  8
Layer_3
  10
165.21921
  20
282.73279
  0
VERTEX
  5
2c6
  8
Layer_3
  10
164.96191
  20
283.32483
  0
VERTEX
  5
2c7
  8
Layer_3
  10
164.91751
  20
283.42352
  0
VERTEX
  5
2c8
  8
Layer_3
  10
164.64389
  20
284.01202
  0
VERTEX
  5
2c9
  8
Layer_3
  10
164.59749
  20
284.10843
  0
VERTEX
  5
2ca
  8
Layer_3
  10
164.30775
  20
284.6929
  0
VERTEX
  5
2cb
  8
Layer_3
  10
164.25946
  20
284.78772
  0
VERTEX
  5
2cc
  8
Layer_3
  10
163.96179
  20
285.35254
  0
VERTEX
  5
2cd
  8
Layer_3
  10
163.91069
  20
285.44623
  0
VERTEX
  5
2ce
  8
Layer_3
  10
163.59982
  20
286.00201
  0
VERTEX
  5
2cf
  8
Layer_3
  10
163.54712
  20
286.09393
  0
VERTEX
  5
2d0
  8
Layer_3
  10
163.2233
  20
286.64078
  0
VERTEX
  5
2d1
  8
Layer_3
  10
163.1683
  20
286.7312
  0
VERTEX
  5
2d2
  8
Layer_3
  10
162.83171
  20
287.26877
  0
VERTEX
  5
2d3
  8
Layer_3
  10
162.77441
  20
287.35767
  0
VERTEX
  5
2d4
  8
Layer_3
  10
162.42526
  20
287.88586
  0
VERTEX
  5
2d5
  8
Layer_3
  10
162.36646
  20
287.97247
  0
VERTEX
  5
2d6
  8
Layer_3
  10
162.00516
  20
288.49109
  0
VERTEX
  5
2d7
  8
Layer_3
  10
161.94305
  20
288.57788
  0
VERTEX
  5
2d8
  8
Layer_3
  10
161.56943
  20
289.08667
  0
VERTEX
  5
2d9
  8
Layer_3
  10
161.50713
  20
289.16946
  0
VERTEX
  5
2da
  8
Layer_3
  10
161.12178
  20
289.66843
  0
VERTEX
  5
2db
  8
Layer_3
  10
161.05669
  20
289.75043
  0
VERTEX
  5
2dc
  8
Layer_3
  10
160.65984
  20
290.23914
  0
VERTEX
  5
2dd
  8
Layer_3
  10
160.59264
  20
290.31982
  0
VERTEX
  5
2de
  8
Layer_3
  10
160.18428
  20
290.79828
  0
VERTEX
  5
2df
  8
Layer_3
  10
160.11458
  20
290.87778
  0
VERTEX
  5
2e0
  8
Layer_3
  10
159.69493
  20
291.34555
  0
VERTEX
  5
2e1
  8
Layer_3
  10
159.62402
  20
291.42273
  0
VERTEX
  5
2e2
  8
Layer_3
  10
159.19328
  20
291.87982
  0
VERTEX
  5
2e3
  8
Layer_3
  10
159.12169
  20
291.95386
  0
VERTEX
  5
2e4
  8
Layer_3
  10
158.6805
  20
292.40009
  0
VERTEX
  5
2e5
  8
Layer_3
  10
158.605
  20
292.47455
  0
VERTEX
  5
2e6
  8
Layer_3
  10
158.15291
  20
292.90967
  0
VERTEX
  5
2e7
  8
Layer_3
  10
158.07701
  20
292.98108
  0
VERTEX
  5
2e8
  8
Layer_3
  10
157.61469
  20
293.40491
  0
VERTEX
  5
2e9
  8
Layer_3
  10
157.53789
  20
293.47369
  0
VERTEX
  5
2ea
  8
Layer_3
  10
157.06552
  20
293.88623
  0
VERTEX
  5
2eb
  8
Layer_3
  10
156.98582
  20
293.95404
  0
VERTEX
  5
2ec
  8
Layer_3
  10
156.50362
  20
294.35492
  0
VERTEX
  5
2ed
  8
Layer_3
  10
156.42162
  20
294.42139
  0
VERTEX
  5
2ee
  8
Layer_3
  10
155.92958
  20
294.81024
  0
VERTEX
  5
2ef
  8
Layer_3
  10
155.84758
  20
294.87366
  0
VERTEX
  5
2f0
  8
Layer_3
  10
155.34615
  20
295.25061
  0
VERTEX
  5
2f1
  8
Layer_3
  10
155.26144
  20
295.3125
  0
VERTEX
  5
2f2
  8
Layer_3
  10
154.75058
  20
295.67731
  0
VERTEX
  5
2f3
  8
Layer_3
  10
154.66478
  20
295.73712
  0
VERTEX
  5
2f4
  8
Layer_3
  10
154.14514
  20
296.08942
  0
VERTEX
  5
2f5
  8
Layer_3
  10
154.05833
  20
296.14682
  0
VERTEX
  5
2f6
  8
Layer_3
  10
153.52969
  20
296.48672
  0
VERTEX
  5
2f7
  8
Layer_3
  10
153.43999
  20
296.54285
  0
VERTEX
  5
2f8
  8
Layer_3
  10
152.90277
  20
296.86981
  0
VERTEX
  5
2f9
  8
Layer_3
  10
152.81287
  20
296.9231
  0
VERTEX
  5
2fa
  8
Layer_3
  10
152.26706
  20
297.2373
  0
VERTEX
  5
2fb
  8
Layer_3
  10
152.17586
  20
297.28839
  0
VERTEX
  5
2fc
  8
Layer_3
  10
151.6221
  20
297.58942
  0
VERTEX
  5
2fd
  8
Layer_3
  10
151.52859
  20
297.63873
  0
VERTEX
  5
2fe
  8
Layer_3
  10
150.9669
  20
297.92639
  0
VERTEX
  5
2ff
  8
Layer_3
  10
150.8732
  20
297.9729
  0
VERTEX
  5
300
  8
Layer_3
  10
150.30376
  20
298.24719
  0
VERTEX
  5
301
  8
Layer_3
  10
150.20796
  20
298.29187
  0
VERTEX
  5
302
  8
Layer_3
  10
149.63078
  20
298.55255
  0
VERTEX
  5
303
  8
Layer_3
  10
149.53368
  20
298.59503
  0
VERTEX
  5
304
  8
Layer_3
  10
148.94939
  20
298.84161
  0
VERTEX
  5
305
  8
Layer_3
  10
148.85149
  20
298.88162
  0
VERTEX
  5
306
  8
Layer_3
  10
148.26009
  20
299.11423
  0
VERTEX
  5
307
  8
Layer_3
  10
148.16089
  20
299.15173
  0
VERTEX
  5
308
  8
Layer_3
  10
147.56258
  20
299.37012
  0
VERTEX
  5
309
  8
Layer_3
  10
147.46338
  20
299.40512
  0
VERTEX
  5
30a
  8
Layer_3
  10
146.85837
  20
299.60928
  0
VERTEX
  5
30b
  8
Layer_3
  10
146.75607
  20
299.6424
  0
VERTEX
  5
30c
  8
Layer_3
  10
146.14627
  20
299.8313
  0
VERTEX
  5
30d
  8
Layer_3
  10
146.04355
  20
299.86157
  0
VERTEX
  5
30e
  8
Layer_3
  10
145.4306
  20
300.03479
  0
VERTEX
  5
30f
  8
Layer_3
  10
145.3302
  20
300.06201
  0
VERTEX
  5
310
  8
Layer_3
  10
144.71452
  20
300.21997
  0
VERTEX
  5
311
  8
Layer_3
  10
144.61098
  20
300.24506
  0
VERTEX
  5
312
  8
Layer_3
  10
143.99301
  20
300.38733
  0
VERTEX
  5
313
  8
Layer_3
  10
143.88966
  20
300.40973
  0
VERTEX
  5
314
  8
Layer_3
  10
143.26918
  20
300.5365
  0
VERTEX
  5
315
  8
Layer_3
  10
143.16583
  20
300.55634
  0
VERTEX
  5
316
  8
Layer_3
  10
142.54369
  20
300.66766
  0
VERTEX
  5
317
  8
Layer_3
  10
142.43825
  20
300.68524
  0
VERTEX
  5
318
  8
Layer_3
  10
141.81442
  20
300.78082
  0
VERTEX
  5
319
  8
Layer_3
  10
141.7115
  20
300.79523
  0
VERTEX
  5
31a
  8
Layer_3
  10
141.08641
  20
300.87564
  0
VERTEX
  5
31b
  8
Layer_3
  10
140.98306
  20
300.88754
  0
VERTEX
  5
31c
  8
Layer_3
  10
140.35674
  20
300.95264
  0
VERTEX
  5
31d
  8
Layer_3
  10
140.25046
  20
300.96265
  0
VERTEX
  5
31e
  8
Layer_3
  10
139.6235
  20
301.01202
  0
VERTEX
  5
31f
  8
Layer_3
  10
139.521
  20
301.01904
  0
VERTEX
  5
320
  8
Layer_3
  10
138.8934
  20
301.05334
  0
VERTEX
  5
321
  8
Layer_3
  10
138.78798
  20
301.05835
  0
VERTEX
  5
322
  8
Layer_3
  10
138.16039
  20
301.07724
  0
VERTEX
  5
323
  8
Layer_3
  10
138.05473
  20
301.07922
  0
VERTEX
  5
324
  8
Layer_3
  10
137.42714
  20
301.08224
  0
VERTEX
  5
325
  8
Layer_3
  10
137.32295
  20
301.08145
  0
VERTEX
  5
326
  8
Layer_3
  10
136.69557
  20
301.06946
  0
VERTEX
  5
327
  8
Layer_3
  10
136.59265
  20
301.06647
  0
VERTEX
  5
328
  8
Layer_3
  10
135.96611
  20
301.03946
  0
VERTEX
  5
329
  8
Layer_3
  10
135.86024
  20
301.03345
  0
VERTEX
  5
32a
  8
Layer_3
  10
135.23454
  20
300.99097
  0
VERTEX
  5
32b
  8
Layer_3
  10
135.13161
  20
300.98297
  0
VERTEX
  5
32c
  8
Layer_3
  10
134.50716
  20
300.92548
  0
VERTEX
  5
32d
  8
Layer_3
  10
134.40297
  20
300.91458
  0
VERTEX
  5
32e
  8
Layer_3
  10
133.77997
  20
300.84189
  0
VERTEX
  5
32f
  8
Layer_3
  10
133.6758
  20
300.82831
  0
VERTEX
  5
330
  8
Layer_3
  10
133.05469
  20
300.74017
  0
VERTEX
  5
331
  8
Layer_3
  10
132.95197
  20
300.72449
  0
VERTEX
  5
332
  8
Layer_3
  10
132.33295
  20
300.62134
  0
VERTEX
  5
333
  8
Layer_3
  10
132.2296
  20
300.60272
  0
VERTEX
  5
334
  8
Layer_3
  10
131.61269
  20
300.48431
  0
VERTEX
  5
335
  8
Layer_3
  10
131.51018
  20
300.46344
  0
VERTEX
  5
336
  8
Layer_3
  10
130.89618
  20
300.32996
  0
VERTEX
  5
337
  8
Layer_3
  10
130.79451
  20
300.30652
  0
VERTEX
  5
338
  8
Layer_3
  10
130.18324
  20
300.15796
  0
VERTEX
  5
339
  8
Layer_3
  10
130.08156
  20
300.1319
  0
VERTEX
  5
33a
  8
Layer_3
  10
129.47363
  20
299.96826
  0
VERTEX
  5
33b
  8
Layer_3
  10
129.3728
  20
299.93985
  0
VERTEX
  5
33c
  8
Layer_3
  10
128.76822
  20
299.7612
  0
VERTEX
  5
33d
  8
Layer_3
  10
128.66718
  20
299.72998
  0
VERTEX
  5
33e
  8
Layer_3
  10
128.06657
  20
299.53632
  0
VERTEX
  5
33f
  8
Layer_3
  10
127.96678
  20
299.50284
  0
VERTEX
  5
340
  8
Layer_3
  10
127.37015
  20
299.2941
  0
VERTEX
  5
341
  8
Layer_3
  10
127.27205
  20
299.2583
  0
VERTEX
  5
342
  8
Layer_3
  10
126.6796
  20
299.03467
  0
VERTEX
  5
343
  8
Layer_3
  10
126.5804
  20
298.99579
  0
VERTEX
  5
344
  8
Layer_3
  10
125.99277
  20
298.75708
  0
VERTEX
  5
345
  8
Layer_3
  10
125.89587
  20
298.71649
  0
VERTEX
  5
346
  8
Layer_3
  10
125.31305
  20
298.46295
  0
VERTEX
  5
347
  8
Layer_3
  10
125.21685
  20
298.41962
  0
VERTEX
  5
348
  8
Layer_3
  10
124.63926
  20
298.15118
  0
VERTEX
  5
349
  8
Layer_3
  10
124.54256
  20
298.1048
  0
VERTEX
  5
34a
  8
Layer_3
  10
123.9704
  20
297.82135
  0
VERTEX
  5
34b
  8
Layer_3
  10
123.8744
  20
297.77234
  0
VERTEX
  5
34c
  8
Layer_3
  10
123.29742
  20
297.46814
  0
VERTEX
  5
34d
  8
Layer_3
  10
123.20412
  20
297.41736
  0
VERTEX
  5
34e
  8
Layer_3
  10
122.63783
  20
297.10059
  0
VERTEX
  5
34f
  8
Layer_3
  10
122.54533
  20
297.04749
  0
VERTEX
  5
350
  8
Layer_3
  10
121.98991
  20
296.71838
  0
VERTEX
  5
351
  8
Layer_3
  10
121.89831
  20
296.6626
  0
VERTEX
  5
352
  8
Layer_3
  10
121.35398
  20
296.32141
  0
VERTEX
  5
353
  8
Layer_3
  10
121.26588
  20
296.26471
  0
VERTEX
  5
354
  8
Layer_3
  10
120.73264
  20
295.91196
  0
VERTEX
  5
355
  8
Layer_3
  10
120.64414
  20
295.85175
  0
VERTEX
  5
356
  8
Layer_3
  10
120.12198
  20
295.48737
  0
VERTEX
  5
357
  8
Layer_3
  10
120.03498
  20
295.42499
  0
VERTEX
  5
358
  8
Layer_3
  10
119.52433
  20
295.04926
  0
VERTEX
  5
359
  8
Layer_3
  10
119.44043
  20
294.98596
  0
VERTEX
  5
35a
  8
Layer_3
  10
118.94087
  20
294.59912
  0
VERTEX
  5
35b
  8
Layer_3
  10
118.85827
  20
294.53372
  0
VERTEX
  5
35c
  8
Layer_3
  10
118.37022
  20
294.13617
  0
VERTEX
  5
35d
  8
Layer_3
  10
118.28902
  20
294.0683
  0
VERTEX
  5
35e
  8
Layer_3
  10
117.81268
  20
293.66034
  0
VERTEX
  5
35f
  8
Layer_3
  10
117.73398
  20
293.59131
  0
VERTEX
  5
360
  8
Layer_3
  10
117.26913
  20
293.1731
  0
VERTEX
  5
361
  8
Layer_3
  10
117.19173
  20
293.10199
  0
VERTEX
  5
362
  8
Layer_3
  10
116.73862
  20
292.67377
  0
VERTEX
  5
363
  8
Layer_3
  10
116.66412
  20
292.60156
  0
VERTEX
  5
364
  8
Layer_3
  10
116.22271
  20
292.16376
  0
VERTEX
  5
365
  8
Layer_3
  10
116.14891
  20
292.08868
  0
VERTEX
  5
366
  8
Layer_3
  10
115.71944
  20
291.64124
  0
VERTEX
  5
367
  8
Layer_3
  10
115.64935
  20
291.56622
  0
VERTEX
  5
368
  8
Layer_3
  10
115.2318
  20
291.1098
  0
VERTEX
  5
369
  8
Layer_3
  10
115.1617
  20
291.03131
  0
VERTEX
  5
36a
  8
Layer_3
  10
114.75628
  20
290.56567
  0
VERTEX
  5
36b
  8
Layer_3
  10
114.69038
  20
290.48804
  0
VERTEX
  5
36c
  8
Layer_3
  10
114.29688
  20
290.01382
  0
VERTEX
  5
36d
  8
Layer_3
  10
114.23119
  20
289.93262
  0
VERTEX
  5
36e
  8
Layer_3
  10
113.85023
  20
289.45001
  0
VERTEX
  5
36f
  8
Layer_3
  10
113.78813
  20
289.36942
  0
VERTEX
  5
370
  8
Layer_3
  10
113.41932
  20
288.87869
  0
VERTEX
  5
371
  8
Layer_3
  10
113.35882
  20
288.79608
  0
VERTEX
  5
372
  8
Layer_3
  10
113.00235
  20
288.2973
  0
VERTEX
  5
373
  8
Layer_3
  10
112.94335
  20
288.21283
  0
VERTEX
  5
374
  8
Layer_3
  10
112.59943
  20
287.70636
  0
VERTEX
  5
375
  8
Layer_3
  10
112.54273
  20
287.62054
  0
VERTEX
  5
376
  8
Layer_3
  10
112.21159
  20
287.10675
  0
VERTEX
  5
377
  8
Layer_3
  10
112.15839
  20
287.02225
  0
VERTEX
  5
378
  8
Layer_3
  10
111.83958
  20
286.50137
  0
VERTEX
  5
379
  8
Layer_3
  10
111.78648
  20
286.41217
  0
VERTEX
  5
37a
  8
Layer_3
  10
111.48063
  20
285.88416
  0
VERTEX
  5
37b
  8
Layer_3
  10
111.43163
  20
285.79736
  0
VERTEX
  5
37c
  8
Layer_3
  10
111.13853
  20
285.26306
  0
VERTEX
  5
37d
  8
Layer_3
  10
111.09023
  20
285.17245
  0
VERTEX
  5
37e
  8
Layer_3
  10
110.81012
  20
284.63144
  0
VERTEX
  5
37f
  8
Layer_3
  10
110.76512
  20
284.54214
  0
VERTEX
  5
380
  8
Layer_3
  10
110.49797
  20
283.99533
  0
VERTEX
  5
381
  8
Layer_3
  10
110.45487
  20
283.90402
  0
VERTEX
  5
382
  8
Layer_3
  10
110.20069
  20
283.3511
  0
VERTEX
  5
383
  8
Layer_3
  10
110.15929
  20
283.25821
  0
VERTEX
  5
384
  8
Layer_3
  10
109.9185
  20
282.69986
  0
VERTEX
  5
385
  8
Layer_3
  10
109.88
  20
282.60767
  0
VERTEX
  5
386
  8
Layer_3
  10
109.6524
  20
282.04407
  0
VERTEX
  5
387
  8
Layer_3
  10
109.6156
  20
281.94977
  0
VERTEX
  5
388
  8
Layer_3
  10
109.40138
  20
281.38092
  0
VERTEX
  5
389
  8
Layer_3
  10
109.36708
  20
281.28653
  0
VERTEX
  5
38a
  8
Layer_3
  10
109.16625
  20
280.71292
  0
VERTEX
  5
38b
  8
Layer_3
  10
109.13405
  20
280.61713
  0
VERTEX
  5
38c
  8
Layer_3
  10
108.94681
  20
280.03894
  0
VERTEX
  5
38d
  8
Layer_3
  10
108.91711
  20
279.94312
  0
VERTEX
  5
38e
  8
Layer_3
  10
108.74347
  20
279.36072
  0
VERTEX
  5
38f
  8
Layer_3
  10
108.71587
  20
279.26422
  0
VERTEX
  5
390
  8
Layer_3
  10
108.55584
  20
278.67767
  0
VERTEX
  5
391
  8
Layer_3
  10
108.53014
  20
278.5788
  0
VERTEX
  5
392
  8
Layer_3
  10
108.38412
  20
277.9884
  0
VERTEX
  5
393
  8
Layer_3
  10
108.36153
  20
277.8924
  0
VERTEX
  5
394
  8
Layer_3
  10
108.2291
  20
277.29871
  0
VERTEX
  5
395
  8
Layer_3
  10
108.208
  20
277.19806
  0
VERTEX
  5
396
  8
Layer_3
  10
108.0898
  20
276.60101
  0
VERTEX
  5
397
  8
Layer_3
  10
108.07159
  20
276.50311
  0
VERTEX
  5
398
  8
Layer_3
  10
107.96722
  20
275.90295
  0
VERTEX
  5
399
  8
Layer_3
  10
107.95071
  20
275.80103
  0
VERTEX
  5
39a
  8
Layer_3
  10
107.86072
  20
275.19815
  0
VERTEX
  5
39b
  8
Layer_3
  10
107.84711
  20
275.09933
  0
VERTEX
  5
39c
  8
Layer_3
  10
107.77122
  20
274.49417
  0
VERTEX
  5
39d
  8
Layer_3
  10
107.75972
  20
274.39206
  0
VERTEX
  5
39e
  8
Layer_3
  10
107.69822
  20
273.78433
  0
VERTEX
  5
39f
  8
Layer_3
  10
107.68922
  20
273.68433
  0
VERTEX
  5
3a0
  8
Layer_3
  10
107.64191
  20
273.07495
  0
VERTEX
  5
3a1
  8
Layer_3
  10
107.63491
  20
272.97198
  0
SEQEND
  0
POLYLINE
  5
3a3
  8
Layer_3
  62
52
  66
1
  10
0
  20
0
  30
0
  0
VERTEX
  5
3a3
  8
Layer_3
  10
209.51501
  20
304.53485
  42
-0.17873712
  0
VERTEX
  5
3a4
  8
Layer_3
  10
209.54758
  20
304.34366
  42
-0.0048741935
  0
VERTEX
  5
3a5
  8
Layer_3
  10
209.79199
  20
304.31989
  42
-0.046473243
  0
VERTEX
  5
3a6
  8
Layer_3
  10
212.1412
  20
303.81244
  42
-0.047084734
  0
VERTEX
  5
3a7
  8
Layer_3
  10
214.37105
  20
302.87036
  42
-0.048051612
  0
VERTEX
  5
3a8
  8
Layer_3
  10
216.41434
  20
301.5025
  42
-0.048892286
  0
VERTEX
  5
3a9
  8
Layer_3
  10
218.20544
  20
299.71603
  0
VERTEX
  5
3aa
  8
Layer_3
  10
218.20544
  20
299.71393
  42
0.41421356
  0
VERTEX
  5
3ab
  8
Layer_3
  10
218.20755
  20
299.71393
  0
VERTEX
  5
3ac
  8
Layer_3
  10
218.42046
  20
299.44263
  0
VERTEX
  5
3ad
  8
Layer_3
  10
228.04727
  20
299.44263
  0
VERTEX
  5
3ae
  8
Layer_3
  10
228.04727
  20
299.39972
  0
VERTEX
  5
3af
  8
Layer_3
  10
228.1351
  20
299.39355
  42
-0.38150826
  0
VERTEX
  5
3b0
  8
Layer_3
  10
235.53777
  20
291.91132
  42
-0.3994556
  0
VERTEX
  5
3b1
  8
Layer_3
  10
228.44981
  20
283.63947
  0
VERTEX
  5
3b2
  8
Layer_3
  10
228.04727
  20
283.60846
  0
VERTEX
  5
3b3
  8
Layer_3
  10
228.04727
  20
283.56763
  0
VERTEX
  5
3b4
  8
Layer_3
  10
218.42046
  20
283.56763
  0
VERTEX
  5
3b5
  8
Layer_3
  10
218.39099
  20
283.53043
  42
-0.20399421
  0
VERTEX
  5
3b6
  8
Layer_3
  10
209.56674
  20
278.6651
  0
VERTEX
  5
3b7
  8
Layer_3
  10
209.15384
  20
278.63458
  42
-0.0084279589
  0
VERTEX
  5
3b8
  8
Layer_3
  10
209.20294
  20
278.44806
  0
VERTEX
  5
3b9
  8
Layer_3
  10
209.33678
  20
278.4584
  42
-0.058686352
  0
VERTEX
  5
3ba
  8
Layer_3
  10
209.38536
  20
278.53488
  0
VERTEX
  5
3bb
  8
Layer_3
  10
209.40118
  20
278.52522
  0
VERTEX
  5
3bc
  8
Layer_3
  10
209.3936
  20
278.46306
  0
VERTEX
  5
3bd
  8
Layer_3
  10
209.58636
  20
278.47754
  42
0.050470844
  0
VERTEX
  5
3be
  8
Layer_3
  10
212.15518
  20
279.00409
  42
0.049911187
  0
VERTEX
  5
3bf
  8
Layer_3
  10
214.54367
  20
280.02213
  42
0.049835255
  0
VERTEX
  5
3c0
  8
Layer_3
  10
216.68359
  20
281.49286
  42
0.050250865
  0
VERTEX
  5
3c1
  8
Layer_3
  10
218.50623
  20
283.37799
  0
VERTEX
  5
3c2
  8
Layer_3
  10
228.23691
  20
283.37799
  0
VERTEX
  5
3c3
  8
Layer_3
  10
228.23691
  20
283.43484
  0
VERTEX
  5
3c4
  8
Layer_3
  10
228.46738
  20
283.45239
  0
VERTEX
  5
3c5
  8
Layer_3
  10
228.46896
  20
283.45239
  42
0.39945529
  0
VERTEX
  5
3c6
  8
Layer_3
  10
235.72485
  20
291.92114
  42
0.37815791
  0
VERTEX
  5
3c7
  8
Layer_3
  10
228.23694
  20
299.55789
  0
VERTEX
  5
3c8
  8
Layer_3
  10
228.23694
  20
299.63177
  0
VERTEX
  5
3c9
  8
Layer_3
  10
218.51195
  20
299.63177
  0
VERTEX
  5
3ca
  8
Layer_3
  10
218.35382
  20
299.83331
  0
VERTEX
  5
3cb
  8
Layer_3
  10
218.35172
  20
299.83331
  42
0.19868743
  0
VERTEX
  5
3cc
  8
Layer_3
  10
209.51505
  20
304.53485
  0
VERTEX
  5
3cd
  8
Layer_3
  10
209.51501
  20
304.53485
  0
SEQEND
  0
POLYLINE
  5
3cf
  8
Layer_3
  62
52
  66
1
  10
0
  20
0
  30
0
  0
VERTEX
  5
3cf
  8
Layer_3
  10
207.59421
  20
304.58136
  42
0.14918915
  0
VERTEX
  5
3d0
  8
Layer_3
  10
200.41428
  20
301.99704
  42
0.065910064
  0
VERTEX
  5
3d1
  8
Layer_3
  10
197.99271
  20
299.63181
  0
VERTEX
  5
3d2
  8
Layer_3
  10
196.34837
  20
299.63181
  0
VERTEX
  5
3d3
  8
Layer_3
  10
194.70454
  20
299.63181
  0
VERTEX
  5
3d4
  8
Layer_3
  10
193.0602
  20
299.63181
  0
VERTEX
  5
3d5
  8
Layer_3
  10
191.41638
  20
299.63181
  0
VERTEX
  5
3d6
  8
Layer_3
  10
189.02374
  20
299.63181
  0
VERTEX
  5
3d7
  8
Layer_3
  10
189.02374
  20
299.59668
  0
VERTEX
  5
3d8
  8
Layer_3
  10
188.70129
  20
299.58893
  42
0.39934707
  0
VERTEX
  5
3d9
  8
Layer_3
  10
181.02373
  20
291.50516
  42
0.23006064
  0
VERTEX
  5
3da
  8
Layer_3
  10
184.11552
  20
285.13965
  42
0.15506825
  0
VERTEX
  5
3db
  8
Layer_3
  10
188.70129
  20
283.4209
  0
VERTEX
  5
3dc
  8
Layer_3
  10
189.02374
  20
283.41315
  0
VERTEX
  5
3dd
  8
Layer_3
  10
189.02374
  20
283.37802
  0
VERTEX
  5
3de
  8
Layer_3
  10
197.98444
  20
283.37802
  0
VERTEX
  5
3df
  8
Layer_3
  10
198.1431
  20
283.177
  0
VERTEX
  5
3e0
  8
Layer_3
  10
198.1431
  20
283.17487
  42
0.1947749
  0
VERTEX
  5
3e1
  8
Layer_3
  10
206.76788
  20
278.49557
  42
-0.18499307
  0
VERTEX
  5
3e2
  8
Layer_3
  10
206.69504
  20
278.69299
  42
-0.01581348
  0
VERTEX
  5
3e3
  8
Layer_3
  10
205.89456
  20
278.81339
  42
-0.029059025
  0
VERTEX
  5
3e4
  8
Layer_3
  10
204.44193
  20
279.17099
  42
-0.028940391
  0
VERTEX
  5
3e5
  8
Layer_3
  10
203.0446
  20
279.69189
  42
-0.028938445
  0
VERTEX
  5
3e6
  8
Layer_3
  10
201.71652
  20
280.37143
  42
-0.02905102
  0
VERTEX
  5
3e7
  8
Layer_3
  10
200.47266
  20
281.20187
  42
-0.029266994
  0
VERTEX
  5
3e8
  8
Layer_3
  10
199.32596
  20
282.17856
  42
-0.029530335
  0
VERTEX
  5
3e9
  8
Layer_3
  10
198.29141
  20
283.29373
  0
VERTEX
  5
3ea
  8
Layer_3
  10
198.28929
  20
283.29584
  0
VERTEX
  5
3eb
  8
Layer_3
  10
198.07639
  20
283.56769
  0
VERTEX
  5
3ec
  8
Layer_3
  10
195.85999
  20
283.56769
  0
VERTEX
  5
3ed
  8
Layer_3
  10
193.64359
  20
283.56769
  0
VERTEX
  5
3ee
  8
Layer_3
  10
191.42769
  20
283.56769
  0
VERTEX
  5
3ef
  8
Layer_3
  10
189.21129
  20
283.56769
  0
VERTEX
  5
3f0
  8
Layer_3
  10
189.21129
  20
283.59662
  0
VERTEX
  5
3f1
  8
Layer_3
  10
188.70744
  20
283.61053
  42
-0.15493937
  0
VERTEX
  5
3f2
  8
Layer_3
  10
184.23279
  20
285.28796
  42
-0.23005244
  0
VERTEX
  5
3f3
  8
Layer_3
  10
181.21126
  20
291.50516
  42
-0.3992103
  0
VERTEX
  5
3f4
  8
Layer_3
  10
188.70744
  20
299.39926
  0
VERTEX
  5
3f5
  8
Layer_3
  10
188.71106
  20
299.39926
  0
VERTEX
  5
3f6
  8
Layer_3
  10
189.2113
  20
299.41321
  0
VERTEX
  5
3f7
  8
Layer_3
  10
189.2113
  20
299.44266
  0
VERTEX
  5
3f8
  8
Layer_3
  10
191.41632
  20
299.44266
  0
VERTEX
  5
3f9
  8
Layer_3
  10
198.07639
  20
299.44266
  0
VERTEX
  5
3fa
  8
Layer_3
  10
198.10583
  20
299.47934
  42
-0.066939926
  0
VERTEX
  5
3fb
  8
Layer_3
  10
200.52585
  20
301.84665
  42
-0.048890683
  0
VERTEX
  5
3fc
  8
Layer_3
  10
202.69006
  20
303.15665
  42
-0.04806238
  0
VERTEX
  5
3fd
  8
Layer_3
  10
205
  20
304
  42
-0.04709516
  0
VERTEX
  5
3fe
  8
Layer_3
  10
207.38953
  20
304.38498
  42
-0.0059366396
  0
VERTEX
  5
3ff
  8
Layer_3
  10
207.69751
  20
304.39844
  42
-0.0073939992
  0
VERTEX
  5
400
  8
Layer_3
  10
207.69025
  20
304.4191
  42
-0.0024627069
  0
VERTEX
  5
401
  8
Layer_3
  10
207.68919
  20
304.42841
  42
-0.15040615
  0
VERTEX
  5
402
  8
Layer_3
  10
207.59412
  20
304.58136
  0
VERTEX
  5
403
  8
Layer_3
  10
207.59421
  20
304.58136
  0
SEQEND
  0
CIRCLE
  5
405
  8
Layer_3
  62
52
  10
189.39108
  20
291.80222
  30
0
  40
0.9999997
  0
CIRCLE
  5
405
  8
Layer_3
  62
52
  10
227.93851
  20
291.82883
  30
0
  40
0.9999997
  0
POLYLINE
  5
405
  8
Layer_3
  62
52
  66
1
  10
0
  20
0
  30
0
  0
VERTEX
  5
405
  8
Layer_3
  10
229.80548
  20
248.03485
  0
VERTEX
  5
406
  8
Layer_3
  10
229.74937
  20
248.64966
  0
VERTEX
  5
407
  8
Layer_3
  10
229.73888
  20
248.7518
  0
VERTEX
  5
408
  8
Layer_3
  10
229.66797
  20
249.36639
  0
VERTEX
  5
409
  8
Layer_3
  10
229.65457
  20
249.47055
  0
VERTEX
  5
40a
  8
Layer_3
  10
229.56837
  20
250.08478
  0
VERTEX
  5
40b
  8
Layer_3
  10
229.55287
  20
250.18726
  0
VERTEX
  5
40c
  8
Layer_3
  10
229.45164
  20
250.8006
  0
VERTEX
  5
40d
  8
Layer_3
  10
229.43324
  20
250.90341
  0
VERTEX
  5
40e
  8
Layer_3
  10
229.31673
  20
251.51587
  0
VERTEX
  5
40f
  8
Layer_3
  10
229.29602
  20
251.61819
  0
VERTEX
  5
410
  8
Layer_3
  10
229.16423
  20
252.22943
  0
VERTEX
  5
411
  8
Layer_3
  10
229.14053
  20
252.33258
  0
VERTEX
  5
412
  8
Layer_3
  10
228.99326
  20
252.9422
  0
VERTEX
  5
413
  8
Layer_3
  10
228.96756
  20
253.04388
  0
VERTEX
  5
414
  8
Layer_3
  10
228.80482
  20
253.65198
  0
VERTEX
  5
415
  8
Layer_3
  10
228.77592
  20
253.7547
  0
VERTEX
  5
416
  8
Layer_3
  10
228.59746
  20
254.36053
  0
VERTEX
  5
417
  8
Layer_3
  10
228.56676
  20
254.46033
  0
VERTEX
  5
418
  8
Layer_3
  10
228.37282
  20
255.06409
  0
VERTEX
  5
419
  8
Layer_3
  10
228.33871
  20
255.16595
  0
VERTEX
  5
41a
  8
Layer_3
  10
228.12888
  20
255.76697
  0
VERTEX
  5
41b
  8
Layer_3
  10
228.09308
  20
255.8656
  0
VERTEX
  5
41c
  8
Layer_3
  10
227.86755
  20
256.46411
  0
VERTEX
  5
41d
  8
Layer_3
  10
227.82805
  20
256.56512
  0
VERTEX
  5
41e
  8
Layer_3
  10
227.58641
  20
257.16028
  0
VERTEX
  5
41f
  8
Layer_3
  10
227.54601
  20
257.25638
  0
VERTEX
  5
420
  8
Layer_3
  10
227.28871
  20
257.84842
  0
VERTEX
  5
421
  8
Layer_3
  10
227.24431
  20
257.94711
  0
VERTEX
  5
422
  8
Layer_3
  10
226.97069
  20
258.53561
  0
VERTEX
  5
423
  8
Layer_3
  10
226.92429
  20
258.63202
  0
VERTEX
  5
424
  8
Layer_3
  10
226.63455
  20
259.21649
  0
VERTEX
  5
425
  8
Layer_3
  10
226.58626
  20
259.31128
  0
VERTEX
  5
426
  8
Layer_3
  10
226.28859
  20
259.8761
  0
VERTEX
  5
427
  8
Layer_3
  10
226.23749
  20
259.96982
  0
VERTEX
  5
428
  8
Layer_3
  10
225.92662
  20
260.5256
  0
VERTEX
  5
429
  8
Layer_3
  10
225.87392
  20
260.61749
  0
VERTEX
  5
42a
  8
Layer_3
  10
225.55009
  20
261.16437
  0
VERTEX
  5
42b
  8
Layer_3
  10
225.4951
  20
261.25476
  0
VERTEX
  5
42c
  8
Layer_3
  10
225.15851
  20
261.79236
  0
VERTEX
  5
42d
  8
Layer_3
  10
225.10121
  20
261.88126
  0
VERTEX
  5
42e
  8
Layer_3
  10
224.75206
  20
262.40945
  0
VERTEX
  5
42f
  8
Layer_3
  10
224.69325
  20
262.49606
  0
VERTEX
  5
430
  8
Layer_3
  10
224.33195
  20
263.01468
  0
VERTEX
  5
431
  8
Layer_3
  10
224.26985
  20
263.10147
  0
VERTEX
  5
432
  8
Layer_3
  10
223.89622
  20
263.61026
  0
VERTEX
  5
433
  8
Layer_3
  10
223.83392
  20
263.69305
  0
VERTEX
  5
434
  8
Layer_3
  10
223.44858
  20
264.19202
  0
VERTEX
  5
435
  8
Layer_3
  10
223.38348
  20
264.27402
  0
VERTEX
  5
436
  8
Layer_3
  10
222.98663
  20
264.76273
  0
VERTEX
  5
437
  8
Layer_3
  10
222.91943
  20
264.84341
  0
VERTEX
  5
438
  8
Layer_3
  10
222.51108
  20
265.32187
  0
VERTEX
  5
439
  8
Layer_3
  10
222.44138
  20
265.40137
  0
VERTEX
  5
43a
  8
Layer_3
  10
222.02173
  20
265.86914
  0
VERTEX
  5
43b
  8
Layer_3
  10
221.95082
  20
265.94635
  0
VERTEX
  5
43c
  8
Layer_3
  10
221.52008
  20
266.40344
  0
VERTEX
  5
43d
  8
Layer_3
  10
221.44849
  20
266.47742
  0
VERTEX
  5
43e
  8
Layer_3
  10
221.00729
  20
266.92365
  0
VERTEX
  5
43f
  8
Layer_3
  10
220.93179
  20
266.99817
  0
VERTEX
  5
440
  8
Layer_3
  10
220.47971
  20
267.43329
  0
VERTEX
  5
441
  8
Layer_3
  10
220.40381
  20
267.50467
  0
VERTEX
  5
442
  8
Layer_3
  10
219.94148
  20
267.9285
  0
VERTEX
  5
443
  8
Layer_3
  10
219.86469
  20
267.99731
  0
VERTEX
  5
444
  8
Layer_3
  10
219.39232
  20
268.40985
  0
VERTEX
  5
445
  8
Layer_3
  10
219.31262
  20
268.47763
  0
VERTEX
  5
446
  8
Layer_3
  10
218.83041
  20
268.87848
  0
VERTEX
  5
447
  8
Layer_3
  10
218.74841
  20
268.94501
  0
VERTEX
  5
448
  8
Layer_3
  10
218.25638
  20
269.33386
  0
VERTEX
  5
449
  8
Layer_3
  10
218.17438
  20
269.39725
  0
VERTEX
  5
44a
  8
Layer_3
  10
217.67294
  20
269.7742
  0
VERTEX
  5
44b
  8
Layer_3
  10
217.58824
  20
269.83612
  0
VERTEX
  5
44c
  8
Layer_3
  10
217.07739
  20
270.20093
  0
VERTEX
  5
44d
  8
Layer_3
  10
216.99158
  20
270.26071
  0
VERTEX
  5
44e
  8
Layer_3
  10
216.47194
  20
270.61301
  0
VERTEX
  5
44f
  8
Layer_3
  10
216.38513
  20
270.67041
  0
VERTEX
  5
450
  8
Layer_3
  10
215.85649
  20
271.01031
  0
VERTEX
  5
451
  8
Layer_3
  10
215.76678
  20
271.06641
  0
VERTEX
  5
452
  8
Layer_3
  10
215.22957
  20
271.39337
  0
VERTEX
  5
453
  8
Layer_3
  10
215.13966
  20
271.44669
  0
VERTEX
  5
454
  8
Layer_3
  10
214.59387
  20
271.76089
  0
VERTEX
  5
455
  8
Layer_3
  10
214.50266
  20
271.81201
  0
VERTEX
  5
456
  8
Layer_3
  10
213.9489
  20
272.11304
  0
VERTEX
  5
457
  8
Layer_3
  10
213.85539
  20
272.16232
  0
VERTEX
  5
458
  8
Layer_3
  10
213.2937
  20
272.44998
  0
VERTEX
  5
459
  8
Layer_3
  10
213.20001
  20
272.49646
  0
VERTEX
  5
45a
  8
Layer_3
  10
212.63055
  20
272.77075
  0
VERTEX
  5
45b
  8
Layer_3
  10
212.53476
  20
272.81546
  0
VERTEX
  5
45c
  8
Layer_3
  10
211.95758
  20
273.07614
  0
VERTEX
  5
45d
  8
Layer_3
  10
211.86047
  20
273.11865
  0
VERTEX
  5
45e
  8
Layer_3
  10
211.27618
  20
273.36523
  0
VERTEX
  5
45f
  8
Layer_3
  10
211.17828
  20
273.40521
  0
VERTEX
  5
460
  8
Layer_3
  10
210.58688
  20
273.63782
  0
VERTEX
  5
461
  8
Layer_3
  10
210.48767
  20
273.67532
  0
VERTEX
  5
462
  8
Layer_3
  10
209.88937
  20
273.89371
  0
VERTEX
  5
463
  8
Layer_3
  10
209.79016
  20
273.92871
  0
VERTEX
  5
464
  8
Layer_3
  10
209.18515
  20
274.13287
  0
VERTEX
  5
465
  8
Layer_3
  10
209.08287
  20
274.16595
  0
VERTEX
  5
466
  8
Layer_3
  10
208.47307
  20
274.35486
  0
VERTEX
  5
467
  8
Layer_3
  10
208.37033
  20
274.38519
  0
VERTEX
  5
468
  8
Layer_3
  10
207.7574
  20
274.55841
  0
VERTEX
  5
469
  8
Layer_3
  10
207.65698
  20
274.5856
  0
VERTEX
  5
46a
  8
Layer_3
  10
207.04129
  20
274.74356
  0
VERTEX
  5
46b
  8
Layer_3
  10
206.93774
  20
274.76868
  0
VERTEX
  5
46c
  8
Layer_3
  10
206.31978
  20
274.91095
  0
VERTEX
  5
46d
  8
Layer_3
  10
206.21643
  20
274.93335
  0
VERTEX
  5
46e
  8
Layer_3
  10
205.59595
  20
275.06012
  0
VERTEX
  5
46f
  8
Layer_3
  10
205.4926
  20
275.0799
  0
VERTEX
  5
470
  8
Layer_3
  10
204.87045
  20
275.19122
  0
VERTEX
  5
471
  8
Layer_3
  10
204.76501
  20
275.20883
  0
VERTEX
  5
472
  8
Layer_3
  10
204.14119
  20
275.30444
  0
VERTEX
  5
473
  8
Layer_3
  10
204.03827
  20
275.31885
  0
VERTEX
  5
474
  8
Layer_3
  10
203.41318
  20
275.39923
  0
VERTEX
  5
475
  8
Layer_3
  10
203.30983
  20
275.41113
  0
VERTEX
  5
476
  8
Layer_3
  10
202.6835
  20
275.47623
  0
VERTEX
  5
477
  8
Layer_3
  10
202.57722
  20
275.48621
  0
VERTEX
  5
478
  8
Layer_3
  10
201.95027
  20
275.53561
  0
VERTEX
  5
479
  8
Layer_3
  10
201.84776
  20
275.5426
  0
VERTEX
  5
47a
  8
Layer_3
  10
201.22017
  20
275.5769
  0
VERTEX
  5
47b
  8
Layer_3
  10
201.11475
  20
275.58191
  0
VERTEX
  5
47c
  8
Layer_3
  10
200.48715
  20
275.60083
  0
VERTEX
  5
47d
  8
Layer_3
  10
200.3815
  20
275.60284
  0
VERTEX
  5
47e
  8
Layer_3
  10
199.75391
  20
275.60583
  0
VERTEX
  5
47f
  8
Layer_3
  10
199.64972
  20
275.60504
  0
VERTEX
  5
480
  8
Layer_3
  10
199.02235
  20
275.59305
  0
VERTEX
  5
481
  8
Layer_3
  10
198.91942
  20
275.59003
  0
VERTEX
  5
482
  8
Layer_3
  10
198.29288
  20
275.56305
  0
VERTEX
  5
483
  8
Layer_3
  10
198.18701
  20
275.55707
  0
VERTEX
  5
484
  8
Layer_3
  10
197.56131
  20
275.51456
  0
VERTEX
  5
485
  8
Layer_3
  10
197.45837
  20
275.50656
  0
VERTEX
  5
486
  8
Layer_3
  10
196.83394
  20
275.44907
  0
VERTEX
  5
487
  8
Layer_3
  10
196.72975
  20
275.43817
  0
VERTEX
  5
488
  8
Layer_3
  10
196.10675
  20
275.36548
  0
VERTEX
  5
489
  8
Layer_3
  10
196.00258
  20
275.35187
  0
VERTEX
  5
48a
  8
Layer_3
  10
195.38147
  20
275.26379
  0
VERTEX
  5
48b
  8
Layer_3
  10
195.27875
  20
275.24808
  0
VERTEX
  5
48c
  8
Layer_3
  10
194.65973
  20
275.14493
  0
VERTEX
  5
48d
  8
Layer_3
  10
194.55638
  20
275.12634
  0
VERTEX
  5
48e
  8
Layer_3
  10
193.93947
  20
275.00793
  0
VERTEX
  5
48f
  8
Layer_3
  10
193.83696
  20
274.987
  0
VERTEX
  5
490
  8
Layer_3
  10
193.22296
  20
274.85352
  0
VERTEX
  5
491
  8
Layer_3
  10
193.12129
  20
274.83014
  0
VERTEX
  5
492
  8
Layer_3
  10
192.51003
  20
274.68158
  0
VERTEX
  5
493
  8
Layer_3
  10
192.40834
  20
274.65546
  0
VERTEX
  5
494
  8
Layer_3
  10
191.80042
  20
274.49182
  0
VERTEX
  5
495
  8
Layer_3
  10
191.69958
  20
274.46344
  0
VERTEX
  5
496
  8
Layer_3
  10
191.095
  20
274.28479
  0
VERTEX
  5
497
  8
Layer_3
  10
190.99396
  20
274.2536
  0
VERTEX
  5
498
  8
Layer_3
  10
190.39336
  20
274.05994
  0
VERTEX
  5
499
  8
Layer_3
  10
190.29356
  20
274.02643
  0
VERTEX
  5
49a
  8
Layer_3
  10
189.69693
  20
273.81769
  0
VERTEX
  5
49b
  8
Layer_3
  10
189.59883
  20
273.78189
  0
VERTEX
  5
49c
  8
Layer_3
  10
189.00638
  20
273.55826
  0
VERTEX
  5
49d
  8
Layer_3
  10
188.90718
  20
273.51935
  0
VERTEX
  5
49e
  8
Layer_3
  10
188.31955
  20
273.28067
  0
VERTEX
  5
49f
  8
Layer_3
  10
188.22266
  20
273.24005
  0
VERTEX
  5
4a0
  8
Layer_3
  10
187.63983
  20
272.98651
  0
VERTEX
  5
4a1
  8
Layer_3
  10
187.54362
  20
272.94324
  0
VERTEX
  5
4a2
  8
Layer_3
  10
186.96603
  20
272.6748
  0
VERTEX
  5
4a3
  8
Layer_3
  10
186.86934
  20
272.62839
  0
VERTEX
  5
4a4
  8
Layer_3
  10
186.29718
  20
272.34494
  0
VERTEX
  5
4a5
  8
Layer_3
  10
186.20119
  20
272.29596
  0
VERTEX
  5
4a6
  8
Layer_3
  10
185.62422
  20
271.99176
  0
VERTEX
  5
4a7
  8
Layer_3
  10
185.53091
  20
271.94095
  0
VERTEX
  5
4a8
  8
Layer_3
  10
184.96461
  20
271.62418
  0
VERTEX
  5
4a9
  8
Layer_3
  10
184.87212
  20
271.57108
  0
VERTEX
  5
4aa
  8
Layer_3
  10
184.3167
  20
271.24197
  0
VERTEX
  5
4ab
  8
Layer_3
  10
184.2251
  20
271.18616
  0
VERTEX
  5
4ac
  8
Layer_3
  10
183.68077
  20
270.84497
  0
VERTEX
  5
4ad
  8
Layer_3
  10
183.59267
  20
270.78827
  0
VERTEX
  5
4ae
  8
Layer_3
  10
183.05943
  20
270.43555
  0
VERTEX
  5
4af
  8
Layer_3
  10
182.97093
  20
270.37537
  0
VERTEX
  5
4b0
  8
Layer_3
  10
182.44878
  20
270.01099
  0
VERTEX
  5
4b1
  8
Layer_3
  10
182.36177
  20
269.94858
  0
VERTEX
  5
4b2
  8
Layer_3
  10
181.85112
  20
269.57285
  0
VERTEX
  5
4b3
  8
Layer_3
  10
181.76723
  20
269.50955
  0
VERTEX
  5
4b4
  8
Layer_3
  10
181.26767
  20
269.12271
  0
VERTEX
  5
4b5
  8
Layer_3
  10
181.18507
  20
269.05731
  0
VERTEX
  5
4b6
  8
Layer_3
  10
180.69702
  20
268.65979
  0
VERTEX
  5
4b7
  8
Layer_3
  10
180.61581
  20
268.59186
  0
VERTEX
  5
4b8
  8
Layer_3
  10
180.13948
  20
268.1839
  0
VERTEX
  5
4b9
  8
Layer_3
  10
180.06078
  20
268.11493
  0
VERTEX
  5
4ba
  8
Layer_3
  10
179.59593
  20
267.69672
  0
VERTEX
  5
4bb
  8
Layer_3
  10
179.51854
  20
267.62561
  0
VERTEX
  5
4bc
  8
Layer_3
  10
179.06541
  20
267.19739
  0
VERTEX
  5
4bd
  8
Layer_3
  10
178.99092
  20
267.12518
  0
VERTEX
  5
4be
  8
Layer_3
  10
178.54951
  20
266.68738
  0
VERTEX
  5
4bf
  8
Layer_3
  10
178.47571
  20
266.61224
  0
VERTEX
  5
4c0
  8
Layer_3
  10
178.04623
  20
266.16479
  0
VERTEX
  5
4c1
  8
Layer_3
  10
177.97614
  20
266.08981
  0
VERTEX
  5
4c2
  8
Layer_3
  10
177.55859
  20
265.63339
  0
VERTEX
  5
4c3
  8
Layer_3
  10
177.48849
  20
265.55487
  0
VERTEX
  5
4c4
  8
Layer_3
  10
177.08307
  20
265.08923
  0
VERTEX
  5
4c5
  8
Layer_3
  10
177.01717
  20
265.01166
  0
VERTEX
  5
4c6
  8
Layer_3
  10
176.62367
  20
264.53741
  0
VERTEX
  5
4c7
  8
Layer_3
  10
176.55797
  20
264.45621
  0
VERTEX
  5
4c8
  8
Layer_3
  10
176.17702
  20
263.9736
  0
VERTEX
  5
4c9
  8
Layer_3
  10
176.11491
  20
263.89301
  0
VERTEX
  5
4ca
  8
Layer_3
  10
175.74611
  20
263.40228
  0
VERTEX
  5
4cb
  8
Layer_3
  10
175.68561
  20
263.3197
  0
VERTEX
  5
4cc
  8
Layer_3
  10
175.32913
  20
262.82092
  0
VERTEX
  5
4cd
  8
Layer_3
  10
175.27013
  20
262.73639
  0
VERTEX
  5
4ce
  8
Layer_3
  10
174.92621
  20
262.22992
  0
VERTEX
  5
4cf
  8
Layer_3
  10
174.86951
  20
262.14413
  0
VERTEX
  5
4d0
  8
Layer_3
  10
174.53836
  20
261.63034
  0
VERTEX
  5
4d1
  8
Layer_3
  10
174.48515
  20
261.54584
  0
VERTEX
  5
4d2
  8
Layer_3
  10
174.16634
  20
261.02496
  0
VERTEX
  5
4d3
  8
Layer_3
  10
174.11324
  20
260.93576
  0
VERTEX
  5
4d4
  8
Layer_3
  10
173.80739
  20
260.40775
  0
VERTEX
  5
4d5
  8
Layer_3
  10
173.75839
  20
260.32092
  0
VERTEX
  5
4d6
  8
Layer_3
  10
173.4653
  20
259.78662
  0
VERTEX
  5
4d7
  8
Layer_3
  10
173.41701
  20
259.69604
  0
VERTEX
  5
4d8
  8
Layer_3
  10
173.1369
  20
259.15503
  0
VERTEX
  5
4d9
  8
Layer_3
  10
173.0919
  20
259.06573
  0
VERTEX
  5
4da
  8
Layer_3
  10
172.82475
  20
258.51892
  0
VERTEX
  5
4db
  8
Layer_3
  10
172.78165
  20
258.42761
  0
VERTEX
  5
4dc
  8
Layer_3
  10
172.52747
  20
257.87469
  0
VERTEX
  5
4dd
  8
Layer_3
  10
172.48607
  20
257.7818
  0
VERTEX
  5
4de
  8
Layer_3
  10
172.24529
  20
257.22345
  0
VERTEX
  5
4df
  8
Layer_3
  10
172.20679
  20
257.13126
  0
VERTEX
  5
4e0
  8
Layer_3
  10
171.97917
  20
256.56766
  0
VERTEX
  5
4e1
  8
Layer_3
  10
171.94237
  20
256.47336
  0
VERTEX
  5
4e2
  8
Layer_3
  10
171.72815
  20
255.90451
  0
VERTEX
  5
4e3
  8
Layer_3
  10
171.69385
  20
255.81012
  0
VERTEX
  5
4e4
  8
Layer_3
  10
171.49301
  20
255.23651
  0
VERTEX
  5
4e5
  8
Layer_3
  10
171.46082
  20
255.14069
  0
VERTEX
  5
4e6
  8
Layer_3
  10
171.27357
  20
254.56253
  0
VERTEX
  5
4e7
  8
Layer_3
  10
171.24388
  20
254.46674
  0
VERTEX
  5
4e8
  8
Layer_3
  10
171.07024
  20
253.88434
  0
VERTEX
  5
4e9
  8
Layer_3
  10
171.04263
  20
253.78784
  0
VERTEX
  5
4ea
  8
Layer_3
  10
170.8826
  20
253.20129
  0
VERTEX
  5
4eb
  8
Layer_3
  10
170.8569
  20
253.10239
  0
VERTEX
  5
4ec
  8
Layer_3
  10
170.71089
  20
252.51199
  0
VERTEX
  5
4ed
  8
Layer_3
  10
170.68829
  20
252.41599
  0
VERTEX
  5
4ee
  8
Layer_3
  10
170.55588
  20
251.8223
  0
VERTEX
  5
4ef
  8
Layer_3
  10
170.53477
  20
251.72165
  0
VERTEX
  5
4f0
  8
Layer_3
  10
170.41658
  20
251.12463
  0
VERTEX
  5
4f1
  8
Layer_3
  10
170.39838
  20
251.02673
  0
VERTEX
  5
4f2
  8
Layer_3
  10
170.29399
  20
250.42657
  0
VERTEX
  5
4f3
  8
Layer_3
  10
170.2775
  20
250.32465
  0
VERTEX
  5
4f4
  8
Layer_3
  10
170.1875
  20
249.72174
  0
VERTEX
  5
4f5
  8
Layer_3
  10
170.1739
  20
249.62292
  0
VERTEX
  5
4f6
  8
Layer_3
  10
170.09801
  20
249.01776
  0
VERTEX
  5
4f7
  8
Layer_3
  10
170.0865
  20
248.91565
  0
VERTEX
  5
4f8
  8
Layer_3
  10
170.02501
  20
248.30792
  0
VERTEX
  5
4f9
  8
Layer_3
  10
170.01601
  20
248.20795
  0
VERTEX
  5
4fa
  8
Layer_3
  10
169.9687
  20
247.59854
  0
VERTEX
  5
4fb
  8
Layer_3
  10
169.9617
  20
247.49557
  0
SEQEND
  0
POLYLINE
  5
4fd
  8
Layer_3
  62
52
  66
1
  10
0
  20
0
  30
0
  0
VERTEX
  5
4fd
  8
Layer_3
  10
229.80551
  20
242.69501
  0
VERTEX
  5
4fe
  8
Layer_3
  10
229.7494
  20
242.0802
  0
VERTEX
  5
4ff
  8
Layer_3
  10
229.73891
  20
241.97809
  0
VERTEX
  5
500
  8
Layer_3
  10
229.668
  20
241.36346
  0
VERTEX
  5
501
  8
Layer_3
  10
229.6546
  20
241.25934
  0
VERTEX
  5
502
  8
Layer_3
  10
229.56841
  20
240.64508
  0
VERTEX
  5
503
  8
Layer_3
  10
229.5529
  20
240.5426
  0
VERTEX
  5
504
  8
Layer_3
  10
229.45168
  20
239.92926
  0
VERTEX
  5
505
  8
Layer_3
  10
229.43327
  20
239.82648
  0
VERTEX
  5
506
  8
Layer_3
  10
229.31676
  20
239.21399
  0
VERTEX
  5
507
  8
Layer_3
  10
229.29605
  20
239.11169
  0
VERTEX
  5
508
  8
Layer_3
  10
229.16426
  20
238.50043
  0
VERTEX
  5
509
  8
Layer_3
  10
229.14056
  20
238.39728
  0
VERTEX
  5
50a
  8
Layer_3
  10
228.9933
  20
237.78766
  0
VERTEX
  5
50b
  8
Layer_3
  10
228.96761
  20
237.68597
  0
VERTEX
  5
50c
  8
Layer_3
  10
228.80487
  20
237.07788
  0
VERTEX
  5
50d
  8
Layer_3
  10
228.77597
  20
236.97516
  0
VERTEX
  5
50e
  8
Layer_3
  10
228.59749
  20
236.36932
  0
VERTEX
  5
50f
  8
Layer_3
  10
228.56679
  20
236.26953
  0
VERTEX
  5
510
  8
Layer_3
  10
228.37285
  20
235.66577
  0
VERTEX
  5
511
  8
Layer_3
  10
228.33875
  20
235.5639
  0
VERTEX
  5
512
  8
Layer_3
  10
228.12889
  20
234.96289
  0
VERTEX
  5
513
  8
Layer_3
  10
228.09309
  20
234.86426
  0
VERTEX
  5
514
  8
Layer_3
  10
227.86757
  20
234.26575
  0
VERTEX
  5
515
  8
Layer_3
  10
227.82806
  20
234.16473
  0
VERTEX
  5
516
  8
Layer_3
  10
227.58641
  20
233.56958
  0
VERTEX
  5
517
  8
Layer_3
  10
227.54601
  20
233.47351
  0
VERTEX
  5
518
  8
Layer_3
  10
227.28871
  20
232.88147
  0
VERTEX
  5
519
  8
Layer_3
  10
227.24431
  20
232.78275
  0
VERTEX
  5
51a
  8
Layer_3
  10
226.97067
  20
232.19424
  0
VERTEX
  5
51b
  8
Layer_3
  10
226.92427
  20
232.09784
  0
VERTEX
  5
51c
  8
Layer_3
  10
226.63454
  20
231.51337
  0
VERTEX
  5
51d
  8
Layer_3
  10
226.58624
  20
231.41858
  0
VERTEX
  5
51e
  8
Layer_3
  10
226.28857
  20
230.85376
  0
VERTEX
  5
51f
  8
Layer_3
  10
226.23747
  20
230.76007
  0
VERTEX
  5
520
  8
Layer_3
  10
225.92661
  20
230.20425
  0
VERTEX
  5
521
  8
Layer_3
  10
225.8739
  20
230.11237
  0
VERTEX
  5
522
  8
Layer_3
  10
225.55006
  20
229.56549
  0
VERTEX
  5
523
  8
Layer_3
  10
225.49507
  20
229.4751
  0
VERTEX
  5
524
  8
Layer_3
  10
225.15846
  20
228.9375
  0
VERTEX
  5
525
  8
Layer_3
  10
225.10117
  20
228.8486
  0
VERTEX
  5
526
  8
Layer_3
  10
224.752
  20
228.3204
  0
VERTEX
  5
527
  8
Layer_3
  10
224.69319
  20
228.2338
  0
VERTEX
  5
528
  8
Layer_3
  10
224.33189
  20
227.71521
  0
VERTEX
  5
529
  8
Layer_3
  10
224.26979
  20
227.62839
  0
VERTEX
  5
52a
  8
Layer_3
  10
223.89618
  20
227.11963
  0
VERTEX
  5
52b
  8
Layer_3
  10
223.83389
  20
227.0368
  0
VERTEX
  5
52c
  8
Layer_3
  10
223.44855
  20
226.53784
  0
VERTEX
  5
52d
  8
Layer_3
  10
223.38345
  20
226.45584
  0
VERTEX
  5
52e
  8
Layer_3
  10
222.98662
  20
225.96716
  0
VERTEX
  5
52f
  8
Layer_3
  10
222.91942
  20
225.88644
  0
VERTEX
  5
530
  8
Layer_3
  10
222.51106
  20
225.40799
  0
VERTEX
  5
531
  8
Layer_3
  10
222.44136
  20
225.32849
  0
VERTEX
  5
532
  8
Layer_3
  10
222.02171
  20
224.86072
  0
VERTEX
  5
533
  8
Layer_3
  10
221.95081
  20
224.78351
  0
VERTEX
  5
534
  8
Layer_3
  10
221.52007
  20
224.32642
  0
VERTEX
  5
535
  8
Layer_3
  10
221.44847
  20
224.25244
  0
VERTEX
  5
536
  8
Layer_3
  10
221.00728
  20
223.80621
  0
VERTEX
  5
537
  8
Layer_3
  10
220.93178
  20
223.73169
  0
VERTEX
  5
538
  8
Layer_3
  10
220.47971
  20
223.29657
  0
VERTEX
  5
539
  8
Layer_3
  10
220.40381
  20
223.22516
  0
VERTEX
  5
53a
  8
Layer_3
  10
219.94147
  20
222.80133
  0
VERTEX
  5
53b
  8
Layer_3
  10
219.86467
  20
222.73254
  0
VERTEX
  5
53c
  8
Layer_3
  10
219.3923
  20
222.32001
  0
VERTEX
  5
53d
  8
Layer_3
  10
219.31262
  20
222.2522
  0
VERTEX
  5
53e
  8
Layer_3
  10
218.8304
  20
221.85132
  0
VERTEX
  5
53f
  8
Layer_3
  10
218.7484
  20
221.78485
  0
VERTEX
  5
540
  8
Layer_3
  10
218.25636
  20
221.39597
  0
VERTEX
  5
541
  8
Layer_3
  10
218.17436
  20
221.33258
  0
VERTEX
  5
542
  8
Layer_3
  10
217.67293
  20
220.95563
  0
VERTEX
  5
543
  8
Layer_3
  10
217.58823
  20
220.89371
  0
VERTEX
  5
544
  8
Layer_3
  10
217.07736
  20
220.52893
  0
VERTEX
  5
545
  8
Layer_3
  10
216.99156
  20
220.46912
  0
VERTEX
  5
546
  8
Layer_3
  10
216.47194
  20
220.11682
  0
VERTEX
  5
547
  8
Layer_3
  10
216.38513
  20
220.05942
  0
VERTEX
  5
548
  8
Layer_3
  10
215.85649
  20
219.71954
  0
VERTEX
  5
549
  8
Layer_3
  10
215.76678
  20
219.66342
  0
VERTEX
  5
54a
  8
Layer_3
  10
215.22957
  20
219.33646
  0
VERTEX
  5
54b
  8
Layer_3
  10
215.13966
  20
219.28314
  0
VERTEX
  5
54c
  8
Layer_3
  10
214.59384
  20
218.96893
  0
VERTEX
  5
54d
  8
Layer_3
  10
214.50264
  20
218.91785
  0
VERTEX
  5
54e
  8
Layer_3
  10
213.94888
  20
218.61682
  0
VERTEX
  5
54f
  8
Layer_3
  10
213.85538
  20
218.56754
  0
VERTEX
  5
550
  8
Layer_3
  10
213.29367
  20
218.27988
  0
VERTEX
  5
551
  8
Layer_3
  10
213.19995
  20
218.23337
  0
VERTEX
  5
552
  8
Layer_3
  10
212.63052
  20
217.95908
  0
VERTEX
  5
553
  8
Layer_3
  10
212.53473
  20
217.91437
  0
VERTEX
  5
554
  8
Layer_3
  10
211.95753
  20
217.65369
  0
VERTEX
  5
555
  8
Layer_3
  10
211.86043
  20
217.61121
  0
VERTEX
  5
556
  8
Layer_3
  10
211.27614
  20
217.36462
  0
VERTEX
  5
557
  8
Layer_3
  10
211.17824
  20
217.32462
  0
VERTEX
  5
558
  8
Layer_3
  10
210.58682
  20
217.09201
  0
VERTEX
  5
559
  8
Layer_3
  10
210.48763
  20
217.0545
  0
VERTEX
  5
55a
  8
Layer_3
  10
209.88933
  20
216.83612
  0
VERTEX
  5
55b
  8
Layer_3
  10
209.79013
  20
216.80112
  0
VERTEX
  5
55c
  8
Layer_3
  10
209.18512
  20
216.59695
  0
VERTEX
  5
55d
  8
Layer_3
  10
209.08282
  20
216.56387
  0
VERTEX
  5
55e
  8
Layer_3
  10
208.47302
  20
216.37497
  0
VERTEX
  5
55f
  8
Layer_3
  10
208.37029
  20
216.34467
  0
VERTEX
  5
560
  8
Layer_3
  10
207.75734
  20
216.17145
  0
VERTEX
  5
561
  8
Layer_3
  10
207.65695
  20
216.14426
  0
VERTEX
  5
562
  8
Layer_3
  10
207.04126
  20
215.9863
  0
VERTEX
  5
563
  8
Layer_3
  10
206.93771
  20
215.96118
  0
VERTEX
  5
564
  8
Layer_3
  10
206.31975
  20
215.81891
  0
VERTEX
  5
565
  8
Layer_3
  10
206.2164
  20
215.79651
  0
VERTEX
  5
566
  8
Layer_3
  10
205.59592
  20
215.66974
  0
VERTEX
  5
567
  8
Layer_3
  10
205.49257
  20
215.64996
  0
VERTEX
  5
568
  8
Layer_3
  10
204.87042
  20
215.53864
  0
VERTEX
  5
569
  8
Layer_3
  10
204.76498
  20
215.52103
  0
VERTEX
  5
56a
  8
Layer_3
  10
204.14116
  20
215.42542
  0
VERTEX
  5
56b
  8
Layer_3
  10
204.03824
  20
215.41101
  0
VERTEX
  5
56c
  8
Layer_3
  10
203.41313
  20
215.33063
  0
VERTEX
  5
56d
  8
Layer_3
  10
203.3098
  20
215.31873
  0
VERTEX
  5
56e
  8
Layer_3
  10
202.68347
  20
215.25363
  0
VERTEX
  5
56f
  8
Layer_3
  10
202.57719
  20
215.24362
  0
VERTEX
  5
570
  8
Layer_3
  10
201.95024
  20
215.19421
  0
VERTEX
  5
571
  8
Layer_3
  10
201.84773
  20
215.18723
  0
VERTEX
  5
572
  8
Layer_3
  10
201.22014
  20
215.15292
  0
VERTEX
  5
573
  8
Layer_3
  10
201.11472
  20
215.14792
  0
VERTEX
  5
574
  8
Layer_3
  10
200.48712
  20
215.12903
  0
VERTEX
  5
575
  8
Layer_3
  10
200.38145
  20
215.12701
  0
VERTEX
  5
576
  8
Layer_3
  10
199.75388
  20
215.12402
  0
VERTEX
  5
577
  8
Layer_3
  10
199.64967
  20
215.12482
  0
VERTEX
  5
578
  8
Layer_3
  10
199.02229
  20
215.13684
  0
VERTEX
  5
579
  8
Layer_3
  10
198.91939
  20
215.13983
  0
VERTEX
  5
57a
  8
Layer_3
  10
198.29285
  20
215.16681
  0
VERTEX
  5
57b
  8
Layer_3
  10
198.18695
  20
215.17282
  0
VERTEX
  5
57c
  8
Layer_3
  10
197.56126
  20
215.21533
  0
VERTEX
  5
57d
  8
Layer_3
  10
197.45834
  20
215.22333
  0
VERTEX
  5
57e
  8
Layer_3
  10
196.83389
  20
215.28082
  0
VERTEX
  5
57f
  8
Layer_3
  10
196.72971
  20
215.29175
  0
VERTEX
  5
580
  8
Layer_3
  10
196.1067
  20
215.36444
  0
VERTEX
  5
581
  8
Layer_3
  10
196.00253
  20
215.37805
  0
VERTEX
  5
582
  8
Layer_3
  10
195.38142
  20
215.46613
  0
VERTEX
  5
583
  8
Layer_3
  10
195.2787
  20
215.48184
  0
VERTEX
  5
584
  8
Layer_3
  10
194.65968
  20
215.58499
  0
VERTEX
  5
585
  8
Layer_3
  10
194.55634
  20
215.60358
  0
VERTEX
  5
586
  8
Layer_3
  10
193.93942
  20
215.72198
  0
VERTEX
  5
587
  8
Layer_3
  10
193.83691
  20
215.74289
  0
VERTEX
  5
588
  8
Layer_3
  10
193.22292
  20
215.87637
  0
VERTEX
  5
589
  8
Layer_3
  10
193.12125
  20
215.89978
  0
VERTEX
  5
58a
  8
Layer_3
  10
192.50998
  20
216.04834
  0
VERTEX
  5
58b
  8
Layer_3
  10
192.40829
  20
216.07443
  0
VERTEX
  5
58c
  8
Layer_3
  10
191.80037
  20
216.23807
  0
VERTEX
  5
58d
  8
Layer_3
  10
191.69954
  20
216.26648
  0
VERTEX
  5
58e
  8
Layer_3
  10
191.09496
  20
216.44513
  0
VERTEX
  5
58f
  8
Layer_3
  10
190.99391
  20
216.47632
  0
VERTEX
  5
590
  8
Layer_3
  10
190.39331
  20
216.66998
  0
VERTEX
  5
591
  8
Layer_3
  10
190.29352
  20
216.70349
  0
VERTEX
  5
592
  8
Layer_3
  10
189.69688
  20
216.91223
  0
VERTEX
  5
593
  8
Layer_3
  10
189.59879
  20
216.94803
  0
VERTEX
  5
594
  8
Layer_3
  10
189.00633
  20
217.17166
  0
VERTEX
  5
595
  8
Layer_3
  10
188.90714
  20
217.21057
  0
VERTEX
  5
596
  8
Layer_3
  10
188.3195
  20
217.44925
  0
VERTEX
  5
597
  8
Layer_3
  10
188.22261
  20
217.48987
  0
VERTEX
  5
598
  8
Layer_3
  10
187.63979
  20
217.74341
  0
VERTEX
  5
599
  8
Layer_3
  10
187.54358
  20
217.78668
  0
VERTEX
  5
59a
  8
Layer_3
  10
186.96599
  20
218.05511
  0
VERTEX
  5
59b
  8
Layer_3
  10
186.86929
  20
218.10153
  0
VERTEX
  5
59c
  8
Layer_3
  10
186.29713
  20
218.38498
  0
VERTEX
  5
59d
  8
Layer_3
  10
186.20114
  20
218.43396
  0
VERTEX
  5
59e
  8
Layer_3
  10
185.62418
  20
218.73816
  0
VERTEX
  5
59f
  8
Layer_3
  10
185.53087
  20
218.78897
  0
VERTEX
  5
5a0
  8
Layer_3
  10
184.96457
  20
219.10574
  0
VERTEX
  5
5a1
  8
Layer_3
  10
184.87207
  20
219.15884
  0
VERTEX
  5
5a2
  8
Layer_3
  10
184.31665
  20
219.48795
  0
VERTEX
  5
5a3
  8
Layer_3
  10
184.22505
  20
219.54376
  0
VERTEX
  5
5a4
  8
Layer_3
  10
183.68073
  20
219.88495
  0
VERTEX
  5
5a5
  8
Layer_3
  10
183.59262
  20
219.94165
  0
VERTEX
  5
5a6
  8
Layer_3
  10
183.05939
  20
220.29437
  0
VERTEX
  5
5a7
  8
Layer_3
  10
182.97089
  20
220.35455
  0
VERTEX
  5
5a8
  8
Layer_3
  10
182.44873
  20
220.71893
  0
VERTEX
  5
5a9
  8
Layer_3
  10
182.36172
  20
220.78134
  0
VERTEX
  5
5aa
  8
Layer_3
  10
181.85107
  20
221.15707
  0
VERTEX
  5
5ab
  8
Layer_3
  10
181.76718
  20
221.2204
  0
VERTEX
  5
5ac
  8
Layer_3
  10
181.26762
  20
221.60724
  0
VERTEX
  5
5ad
  8
Layer_3
  10
181.18503
  20
221.67261
  0
VERTEX
  5
5ae
  8
Layer_3
  10
180.69698
  20
222.07016
  0
VERTEX
  5
5af
  8
Layer_3
  10
180.61577
  20
222.13806
  0
VERTEX
  5
5b0
  8
Layer_3
  10
180.13943
  20
222.54602
  0
VERTEX
  5
5b1
  8
Layer_3
  10
180.06073
  20
222.61502
  0
VERTEX
  5
5b2
  8
Layer_3
  10
179.59589
  20
223.03323
  0
VERTEX
  5
5b3
  8
Layer_3
  10
179.51849
  20
223.10431
  0
VERTEX
  5
5b4
  8
Layer_3
  10
179.06537
  20
223.53253
  0
VERTEX
  5
5b5
  8
Layer_3
  10
178.99088
  20
223.60474
  0
VERTEX
  5
5b6
  8
Layer_3
  10
178.54947
  20
224.04254
  0
VERTEX
  5
5b7
  8
Layer_3
  10
178.47566
  20
224.11768
  0
VERTEX
  5
5b8
  8
Layer_3
  10
178.04619
  20
224.56512
  0
VERTEX
  5
5b9
  8
Layer_3
  10
177.97609
  20
224.64011
  0
VERTEX
  5
5ba
  8
Layer_3
  10
177.55855
  20
225.09653
  0
VERTEX
  5
5bb
  8
Layer_3
  10
177.48845
  20
225.17502
  0
VERTEX
  5
5bc
  8
Layer_3
  10
177.08302
  20
225.64066
  0
VERTEX
  5
5bd
  8
Layer_3
  10
177.01712
  20
225.71826
  0
VERTEX
  5
5be
  8
Layer_3
  10
176.62363
  20
226.1925
  0
VERTEX
  5
5bf
  8
Layer_3
  10
176.55792
  20
226.27371
  0
VERTEX
  5
5c0
  8
Layer_3
  10
176.17697
  20
226.75629
  0
VERTEX
  5
5c1
  8
Layer_3
  10
176.11487
  20
226.83688
  0
VERTEX
  5
5c2
  8
Layer_3
  10
175.74606
  20
227.32761
  0
VERTEX
  5
5c3
  8
Layer_3
  10
175.68556
  20
227.41022
  0
VERTEX
  5
5c4
  8
Layer_3
  10
175.32909
  20
227.909
  0
VERTEX
  5
5c5
  8
Layer_3
  10
175.27008
  20
227.9935
  0
VERTEX
  5
5c6
  8
Layer_3
  10
174.92616
  20
228.49997
  0
VERTEX
  5
5c7
  8
Layer_3
  10
174.86946
  20
228.58575
  0
VERTEX
  5
5c8
  8
Layer_3
  10
174.53831
  20
229.09958
  0
VERTEX
  5
5c9
  8
Layer_3
  10
174.48511
  20
229.18408
  0
VERTEX
  5
5ca
  8
Layer_3
  10
174.16629
  20
229.70496
  0
VERTEX
  5
5cb
  8
Layer_3
  10
174.11319
  20
229.79413
  0
VERTEX
  5
5cc
  8
Layer_3
  10
173.80734
  20
230.32217
  0
VERTEX
  5
5cd
  8
Layer_3
  10
173.75835
  20
230.40897
  0
VERTEX
  5
5ce
  8
Layer_3
  10
173.46526
  20
230.94327
  0
VERTEX
  5
5cf
  8
Layer_3
  10
173.41696
  20
231.03387
  0
VERTEX
  5
5d0
  8
Layer_3
  10
173.13686
  20
231.57489
  0
VERTEX
  5
5d1
  8
Layer_3
  10
173.09186
  20
231.66418
  0
VERTEX
  5
5d2
  8
Layer_3
  10
172.82471
  20
232.211
  0
VERTEX
  5
5d3
  8
Layer_3
  10
172.7816
  20
232.30228
  0
VERTEX
  5
5d4
  8
Layer_3
  10
172.52742
  20
232.85519
  0
VERTEX
  5
5d5
  8
Layer_3
  10
172.48602
  20
232.94812
  0
VERTEX
  5
5d6
  8
Layer_3
  10
172.24524
  20
233.50647
  0
VERTEX
  5
5d7
  8
Layer_3
  10
172.20674
  20
233.59866
  0
VERTEX
  5
5d8
  8
Layer_3
  10
171.97913
  20
234.16226
  0
VERTEX
  5
5d9
  8
Layer_3
  10
171.94232
  20
234.25656
  0
VERTEX
  5
5da
  8
Layer_3
  10
171.7281
  20
234.82538
  0
VERTEX
  5
5db
  8
Layer_3
  10
171.6938
  20
234.9198
  0
VERTEX
  5
5dc
  8
Layer_3
  10
171.49297
  20
235.49341
  0
VERTEX
  5
5dd
  8
Layer_3
  10
171.46077
  20
235.5892
  0
VERTEX
  5
5de
  8
Layer_3
  10
171.27353
  20
236.16739
  0
VERTEX
  5
5df
  8
Layer_3
  10
171.24384
  20
236.26318
  0
VERTEX
  5
5e0
  8
Layer_3
  10
171.07019
  20
236.84558
  0
VERTEX
  5
5e1
  8
Layer_3
  10
171.04259
  20
236.94208
  0
VERTEX
  5
5e2
  8
Layer_3
  10
170.88255
  20
237.52863
  0
VERTEX
  5
5e3
  8
Layer_3
  10
170.85686
  20
237.62753
  0
VERTEX
  5
5e4
  8
Layer_3
  10
170.71085
  20
238.21793
  0
VERTEX
  5
5e5
  8
Layer_3
  10
170.68825
  20
238.3139
  0
VERTEX
  5
5e6
  8
Layer_3
  10
170.55583
  20
238.90759
  0
VERTEX
  5
5e7
  8
Layer_3
  10
170.53473
  20
239.00824
  0
VERTEX
  5
5e8
  8
Layer_3
  10
170.41653
  20
239.60529
  0
VERTEX
  5
5e9
  8
Layer_3
  10
170.39833
  20
239.70319
  0
VERTEX
  5
5ea
  8
Layer_3
  10
170.29395
  20
240.30334
  0
VERTEX
  5
5eb
  8
Layer_3
  10
170.27745
  20
240.40527
  0
VERTEX
  5
5ec
  8
Layer_3
  10
170.18745
  20
241.00818
  0
VERTEX
  5
5ed
  8
Layer_3
  10
170.17386
  20
241.10699
  0
VERTEX
  5
5ee
  8
Layer_3
  10
170.09796
  20
241.71216
  0
VERTEX
  5
5ef
  8
Layer_3
  10
170.08646
  20
241.81427
  0
VERTEX
  5
5f0
  8
Layer_3
  10
170.02496
  20
242.422
  0
VERTEX
  5
5f1
  8
Layer_3
  10
170.01596
  20
242.52197
  0
VERTEX
  5
5f2
  8
Layer_3
  10
169.96866
  20
243.13135
  0
VERTEX
  5
5f3
  8
Layer_3
  10
169.96165
  20
243.23431
  0
SEQEND
  0
CIRCLE
  5
5f5
  8
Layer_3
  62
52
  10
196.08707
  20
366.39822
  30
0
  40
2.4999993
  0
CIRCLE
  5
5f5
  8
Layer_3
  62
52
  10
207.58093
  20
366.42203
  30
0
  40
2.4999993
  0
CIRCLE
  5
5f5
  8
Layer_3
  62
52
  10
201.43835
  20
368.82632
  30
0
  40
0.29883492
  0
CIRCLE
  5
5f5
  8
Layer_3
  62
52
  10
201.43835
  20
364.20596
  30
0
  40
0.29883492
  0
CIRCLE
  5
5f5
  8
Layer_3
  62
52
  10
201.43835
  20
361.78152
  30
0
  40
0.29883492
  0
CIRCLE
  5
5f5
  8
Layer_3
  62
52
  10
203.56293
  20
361.78653
  30
0
  40
0.29883492
  0
CIRCLE
  5
5f5
  8
Layer_3
  62
52
  10
205.57327
  20
361.78152
  30
0
  40
0.29883492
  0
CIRCLE
  5
5f5
  8
Layer_3
  62
52
  10
186.74268
  20
368.81021
  30
0
  40
0.29883492
  0
CIRCLE
  5
5f5
  8
Layer_3
  62
52
  10
186.54639
  20
365.05179
  30
0
  40
0.29883492
  0
CIRCLE
  5
5f5
  8
Layer_3
  62
52
  10
186.74268
  20
361.76541
  30
0
  40
0.29883492
  0
CIRCLE
  5
5f5
  8
Layer_3
  62
52
  10
189.32507
  20
368.73499
  30
0
  40
0.29883492
  0
CIRCLE
  5
5f5
  8
Layer_3
  62
52
  10
191.37695
  20
367.86246
  30
0
  40
0.29883492
  0
CIRCLE
  5
5f5
  8
Layer_3
  62
52
  10
189.19763
  20
364.95828
  30
0
  40
0.29883492
  0
CIRCLE
  5
5f5
  8
Layer_3
  62
52
  10
215.01791
  20
363.79758
  30
0
  40
0.29883492
  0
CIRCLE
  5
5f5
  8
Layer_3
  62
52
  10
219.92175
  20
364.40591
  30
0
  40
0.29883492
  0
CIRCLE
  5
5f5
  8
Layer_3
  62
52
  10
219.29895
  20
362.60526
  30
0
  40
0.29883492
  0
CIRCLE
  5
5f5
  8
Layer_3
  62
52
  10
216.9451
  20
362.26883
  30
0
  40
0.29883492
  0
CIRCLE
  5
5f5
  8
Layer_3
  62
52
  10
188.20108
  20
383.50772
  30
0
  40
0.24999993
  0
CIRCLE
  5
5f5
  8
Layer_3
  62
52
  10
185.45239
  20
381.79477
  30
0
  40
0.24999993
  0
CIRCLE
  5
5f5
  8
Layer_3
  62
52
  10
183.38089
  20
380.00208
  30
0
  40
0.24999993
  0
CIRCLE
  5
5f5
  8
Layer_3
  62
52
  10
180.43298
  20
377.45267
  30
0
  40
0.24999993
  0
CIRCLE
  5
5f5
  8
Layer_3
  62
52
  10
178.56332
  20
374.63968
  30
0
  40
0.24999993
  0
CIRCLE
  5
5f5
  8
Layer_3
  62
52
  10
176.74417
  20
371.84354
  30
0
  40
0.24999993
  0
CIRCLE
  5
5f5
  8
Layer_3
  62
52
  10
175.49265
  20
368.33304
  30
0
  40
0.24999993
  0
CIRCLE
  5
5f5
  8
Layer_3
  62
52
  10
191.31723
  20
385.0231
  30
0
  40
0.24999993
  0
CIRCLE
  5
5f5
  8
Layer_3
  62
52
  10
194.65524
  20
386.01208
  30
0
  40
0.24999993
  0
CIRCLE
  5
5f5
  8
Layer_3
  62
52
  10
197.99326
  20
386.75394
  30
0
  40
0.24999993
  0
CIRCLE
  5
5f5
  8
Layer_3
  62
52
  10
201.57852
  20
387.12479
  30
0
  40
0.24999993
  0
CIRCLE
  5
5f5
  8
Layer_3
  62
52
  10
204.66925
  20
387.00113
  30
0
  40
0.24999993
  0
CIRCLE
  5
5f5
  8
Layer_3
  62
52
  10
208.00726
  20
386.25937
  30
0
  40
0.24999993
  0
CIRCLE
  5
5f5
  8
Layer_3
  62
52
  10
211.22162
  20
385.27029
  30
0
  40
0.24999993
  0
CIRCLE
  5
5f5
  8
Layer_3
  62
52
  10
214.06512
  20
383.91043
  30
0
  40
0.24999993
  0
CIRCLE
  5
5f5
  8
Layer_3
  62
52
  10
217.03223
  20
382.7977
  30
0
  40
0.24999993
  0
CIRCLE
  5
5f5
  8
Layer_3
  62
52
  10
174.75085
  20
364.87143
  30
0
  40
0.24999993
  0
CIRCLE
  5
5f5
  8
Layer_3
  62
52
  10
219.75208
  20
380.69604
  30
0
  40
0.24999993
  0
CIRCLE
  5
5f5
  8
Layer_3
  62
52
  10
174.04062
  20
361.96744
  30
0
  40
0.24999993
  0
CIRCLE
  5
5f5
  8
Layer_3
  62
52
  10
221.93176
  20
378.28354
  30
0
  40
0.24999993
  0
CIRCLE
  5
5f5
  8
Layer_3
  62
52
  10
224.32736
  20
375.37466
  30
0
  40
0.24999993
  0
CIRCLE
  5
5f5
  8
Layer_3
  62
52
  10
226.38071
  20
372.29459
  30
0
  40
0.24999993
  0
CIRCLE
  5
5f5
  8
Layer_3
  62
52
  10
228.09186
  20
368.70117
  30
0
  40
0.24999993
  0
CIRCLE
  5
5f5
  8
Layer_3
  62
52
  10
228.94742
  20
364.42334
  30
0
  40
0.24999993
  0
CIRCLE
  5
5f5
  8
Layer_3
  62
52
  10
188.64526
  20
334.16214
  30
0
  40
0.24999993
  0
CIRCLE
  5
5f5
  8
Layer_3
  62
52
  10
185.89658
  20
335.87509
  30
0
  40
0.24999993
  0
CIRCLE
  5
5f5
  8
Layer_3
  62
52
  10
183.82507
  20
337.66776
  30
0
  40
0.24999993
  0
CIRCLE
  5
5f5
  8
Layer_3
  62
52
  10
180.87717
  20
340.21725
  30
0
  40
0.24999993
  0
CIRCLE
  5
5f5
  8
Layer_3
  62
52
  10
179.00751
  20
343.03018
  30
0
  40
0.24999993
  0
CIRCLE
  5
5f5
  8
Layer_3
  62
52
  10
177.18835
  20
345.82626
  30
0
  40
0.24999993
  0
CIRCLE
  5
5f5
  8
Layer_3
  62
52
  10
191.76141
  20
332.64676
  30
0
  40
0.24999993
  0
CIRCLE
  5
5f5
  8
Layer_3
  62
52
  10
195.09943
  20
331.65775
  30
0
  40
0.24999993
  0
CIRCLE
  5
5f5
  8
Layer_3
  62
52
  10
198.43744
  20
330.91599
  30
0
  40
0.24999993
  0
CIRCLE
  5
5f5
  8
Layer_3
  62
52
  10
202.02271
  20
330.54507
  30
0
  40
0.24999993
  0
CIRCLE
  5
5f5
  8
Layer_3
  62
52
  10
205.11343
  20
330.66873
  30
0
  40
0.24999993
  0
CIRCLE
  5
5f5
  8
Layer_3
  62
52
  10
208.45145
  20
331.41049
  30
0
  40
0.24999993
  0
CIRCLE
  5
5f5
  8
Layer_3
  62
52
  10
211.6658
  20
332.39951
  30
0
  40
0.24999993
  0
CIRCLE
  5
5f5
  8
Layer_3
  62
52
  10
214.50931
  20
333.75943
  30
0
  40
0.24999993
  0
CIRCLE
  5
5f5
  8
Layer_3
  62
52
  10
217.47641
  20
334.8721
  30
0
  40
0.24999993
  0
CIRCLE
  5
5f5
  8
Layer_3
  62
52
  10
220.19626
  20
336.97385
  30
0
  40
0.24999993
  0
CIRCLE
  5
5f5
  8
Layer_3
  62
52
  10
222.37595
  20
339.38632
  30
0
  40
0.24999993
  0
CIRCLE
  5
5f5
  8
Layer_3
  62
52
  10
224.77155
  20
342.29526
  30
0
  40
0.24999993
  0
CIRCLE
  5
5f5
  8
Layer_3
  62
52
  10
226.82489
  20
345.37527
  30
0
  40
0.24999993
  0
CIRCLE
  5
5f5
  8
Layer_3
  62
52
  10
175.93683
  20
349.33682
  30
0
  40
0.24999993
  0
CIRCLE
  5
5f5
  8
Layer_3
  62
52
  10
175.19504
  20
352.79843
  30
0
  40
0.24999993
  0
CIRCLE
  5
5f5
  8
Layer_3
  62
52
  10
174.4848
  20
355.70242
  30
0
  40
0.24999993
  0
CIRCLE
  5
5f5
  8
Layer_3
  62
52
  10
228.53604
  20
348.96866
  30
0
  40
0.24999993
  0
CIRCLE
  5
5f5
  8
Layer_3
  62
52
  10
229.3916
  20
353.24649
  30
0
  40
0.24999993
  0
CIRCLE
  5
5f5
  8
Layer_3
  62
52
  10
173.87469
  20
359.08109
  30
0
  40
0.24999993
  0
CIRCLE
  5
5f5
  8
Layer_3
  62
52
  10
229.46039
  20
360.55215
  30
0
  40
0.24999993
  0
CIRCLE
  5
5f5
  8
Layer_3
  62
52
  10
229.67053
  20
357.29483
  30
0
  40
0.24999993
  0
CIRCLE
  5
5f5
  8
Layer_3
  62
52
  10
201.43835
  20
366.64478
  30
0
  40
0.29883492
  0
CIRCLE
  5
5f5
  8
Layer_3
  62
52
  10
191.36102
  20
365.7627
  30
0
  40
0.29883492
  0
CIRCLE
  5
5f5
  8
Layer_3
  62
52
  10
219.80869
  20
367.95499
  30
0
  40
0.29883492
  0
CIRCLE
  5
5f5
  8
Layer_3
  62
52
  10
217.3844
  20
365.79385
  30
0
  40
0.29883492
  0
CIRCLE
  5
5f5
  8
Layer_3
  62
52
  10
215.31635
  20
366.35855
  30
0
  40
0.29883492
  0
CIRCLE
  5
5f5
  8
Layer_3
  62
52
  10
215.52765
  20
368.44604
  30
0
  40
0.29883492
  0
CIRCLE
  5
5f5
  8
Layer_3
  62
52
  10
217.8815
  20
369.48364
  30
0
  40
0.29883492
  0
POLYLINE
  5
5f5
  8
Layer_3
  62
52
  66
1
  10
0
  20
0
  30
0
  0
VERTEX
  5
5f5
  8
Layer_3
  10
185.75735
  20
352.58847
  42
-0.21043364
  0
VERTEX
  5
5f6
  8
Layer_3
  10
185.55997
  20
352.52121
  42
-0.21026141
  0
VERTEX
  5
5f7
  8
Layer_3
  10
185.37708
  20
352.6214
  42
-0.38862089
  0
VERTEX
  5
5f8
  8
Layer_3
  10
185.4072
  20
353.03717
  42
-0.21046219
  0
VERTEX
  5
5f9
  8
Layer_3
  10
185.60455
  20
353.1044
  42
-0.21037076
  0
VERTEX
  5
5fa
  8
Layer_3
  10
185.78745
  20
353.00424
  42
-0.38862089
  0
VERTEX
  5
5fb
  8
Layer_3
  10
185.75735
  20
352.58847
  0
SEQEND
  0
POLYLINE
  5
5fd
  8
Layer_3
  62
52
  66
1
  10
0
  20
0
  30
0
  0
VERTEX
  5
5fd
  8
Layer_3
  10
183.62024
  20
350.57864
  42
-0.21035283
  0
VERTEX
  5
5fe
  8
Layer_3
  10
183.42285
  20
350.51141
  42
-0.21041429
  0
VERTEX
  5
5ff
  8
Layer_3
  10
183.23999
  20
350.61157
  42
-0.38866128
  0
VERTEX
  5
600
  8
Layer_3
  10
183.27008
  20
351.02737
  42
-0.21027198
  0
VERTEX
  5
601
  8
Layer_3
  10
183.46747
  20
351.0946
  42
-0.21048114
  0
VERTEX
  5
602
  8
Layer_3
  10
183.65036
  20
350.99442
  42
-0.38869535
  0
VERTEX
  5
603
  8
Layer_3
  10
183.62024
  20
350.57864
  0
SEQEND
  0
POLYLINE
  5
605
  8
Layer_3
  62
52
  66
1
  10
0
  20
0
  30
0
  0
VERTEX
  5
605
  8
Layer_3
  10
181.34473
  20
348.39725
  42
-0.21035283
  0
VERTEX
  5
606
  8
Layer_3
  10
181.14734
  20
348.33002
  42
-0.21037076
  0
VERTEX
  5
607
  8
Layer_3
  10
180.96445
  20
348.43018
  42
-0.38862089
  0
VERTEX
  5
608
  8
Layer_3
  10
180.99457
  20
348.84598
  42
-0.21035283
  0
VERTEX
  5
609
  8
Layer_3
  10
181.19193
  20
348.91321
  42
-0.21037076
  0
VERTEX
  5
60a
  8
Layer_3
  10
181.37482
  20
348.81302
  42
-0.38862089
  0
VERTEX
  5
60b
  8
Layer_3
  10
181.34473
  20
348.39725
  0
SEQEND
  0
POLYLINE
  5
60d
  8
Layer_3
  62
52
  66
1
  10
0
  20
0
  30
0
  0
VERTEX
  5
60d
  8
Layer_3
  10
187.18686
  20
351.00089
  42
-0.21035283
  0
VERTEX
  5
60e
  8
Layer_3
  10
186.98947
  20
350.93365
  42
-0.21041429
  0
VERTEX
  5
60f
  8
Layer_3
  10
186.80661
  20
351.03381
  42
-0.38866128
  0
VERTEX
  5
610
  8
Layer_3
  10
186.8367
  20
351.44962
  42
-0.21027198
  0
VERTEX
  5
611
  8
Layer_3
  10
187.03409
  20
351.51685
  42
-0.21048114
  0
VERTEX
  5
612
  8
Layer_3
  10
187.21698
  20
351.41666
  42
-0.38869535
  0
VERTEX
  5
613
  8
Layer_3
  10
187.18686
  20
351.00089
  0
SEQEND
  0
POLYLINE
  5
615
  8
Layer_3
  62
52
  66
1
  10
0
  20
0
  30
0
  0
VERTEX
  5
615
  8
Layer_3
  10
188.23709
  20
349.39877
  42
-0.21035283
  0
VERTEX
  5
616
  8
Layer_3
  10
188.0397
  20
349.33154
  42
-0.21037076
  0
VERTEX
  5
617
  8
Layer_3
  10
187.85681
  20
349.4317
  42
-0.38862089
  0
VERTEX
  5
618
  8
Layer_3
  10
187.88693
  20
349.8475
  42
-0.21035283
  0
VERTEX
  5
619
  8
Layer_3
  10
188.08429
  20
349.91473
  42
-0.21037076
  0
VERTEX
  5
61a
  8
Layer_3
  10
188.26718
  20
349.81454
  42
-0.38862089
  0
VERTEX
  5
61b
  8
Layer_3
  10
188.23709
  20
349.39877
  0
SEQEND
  0
POLYLINE
  5
61d
  8
Layer_3
  62
52
  66
1
  10
0
  20
0
  30
0
  0
VERTEX
  5
61d
  8
Layer_3
  10
186.98547
  20
347.733
  42
-0.21035283
  0
VERTEX
  5
61e
  8
Layer_3
  10
186.78809
  20
347.66577
  42
-0.21037076
  0
VERTEX
  5
61f
  8
Layer_3
  10
186.60519
  20
347.76593
  42
-0.38862089
  0
VERTEX
  5
620
  8
Layer_3
  10
186.63531
  20
348.18173
  42
-0.21035283
  0
VERTEX
  5
621
  8
Layer_3
  10
186.83267
  20
348.24896
  42
-0.21037076
  0
VERTEX
  5
622
  8
Layer_3
  10
187.01556
  20
348.14877
  42
-0.38862089
  0
VERTEX
  5
623
  8
Layer_3
  10
186.98547
  20
347.733
  0
SEQEND
  0
POLYLINE
  5
625
  8
Layer_3
  62
52
  66
1
  10
0
  20
0
  30
0
  0
VERTEX
  5
625
  8
Layer_3
  10
184.8093
  20
349.10672
  42
-0.21035283
  0
VERTEX
  5
626
  8
Layer_3
  10
184.61191
  20
349.03949
  42
-0.21037076
  0
VERTEX
  5
627
  8
Layer_3
  10
184.42902
  20
349.13965
  42
-0.38862089
  0
VERTEX
  5
628
  8
Layer_3
  10
184.45914
  20
349.55545
  42
-0.21035283
  0
VERTEX
  5
629
  8
Layer_3
  10
184.65649
  20
349.62268
  42
-0.21037076
  0
VERTEX
  5
62a
  8
Layer_3
  10
184.83939
  20
349.52249
  42
-0.38862089
  0
VERTEX
  5
62b
  8
Layer_3
  10
184.8093
  20
349.10672
  0
SEQEND
  0
POLYLINE
  5
62d
  8
Layer_3
  62
52
  66
1
  10
0
  20
0
  30
0
  0
VERTEX
  5
62d
  8
Layer_3
  10
185.05524
  20
346.51627
  42
-0.21035283
  0
VERTEX
  5
62e
  8
Layer_3
  10
184.85785
  20
346.44904
  42
-0.21037076
  0
VERTEX
  5
62f
  8
Layer_3
  10
184.67496
  20
346.54919
  42
-0.38862089
  0
VERTEX
  5
630
  8
Layer_3
  10
184.70508
  20
346.965
  42
-0.21035283
  0
VERTEX
  5
631
  8
Layer_3
  10
184.90244
  20
347.03223
  42
-0.21037076
  0
VERTEX
  5
632
  8
Layer_3
  10
185.08533
  20
346.93204
  42
-0.38862089
  0
VERTEX
  5
633
  8
Layer_3
  10
185.05524
  20
346.51627
  0
SEQEND
  0
POLYLINE
  5
635
  8
Layer_3
  62
52
  66
1
  10
0
  20
0
  30
0
  0
VERTEX
  5
635
  8
Layer_3
  10
184.50134
  20
344.62881
  42
-0.21035283
  0
VERTEX
  5
636
  8
Layer_3
  10
184.30396
  20
344.56158
  42
-0.21037076
  0
VERTEX
  5
637
  8
Layer_3
  10
184.12106
  20
344.66174
  42
-0.38862089
  0
VERTEX
  5
638
  8
Layer_3
  10
184.15118
  20
345.07755
  42
-0.21035283
  0
VERTEX
  5
639
  8
Layer_3
  10
184.34854
  20
345.14478
  42
-0.21037076
  0
VERTEX
  5
63a
  8
Layer_3
  10
184.53143
  20
345.04459
  42
-0.38862089
  0
VERTEX
  5
63b
  8
Layer_3
  10
184.50134
  20
344.62881
  0
SEQEND
  0
POLYLINE
  5
63d
  8
Layer_3
  62
52
  66
1
  10
0
  20
0
  30
0
  0
VERTEX
  5
63d
  8
Layer_3
  10
202.66391
  20
343.74744
  42
-0.41145996
  0
VERTEX
  5
63e
  8
Layer_3
  10
202.40848
  20
343.43765
  0
VERTEX
  5
63f
  8
Layer_3
  10
202.30255
  20
343.45486
  0
VERTEX
  5
640
  8
Layer_3
  10
202.21393
  20
343.51315
  0
VERTEX
  5
641
  8
Layer_3
  10
202.15179
  20
343.60352
  0
VERTEX
  5
642
  8
Layer_3
  10
202.12518
  20
343.71698
  42
-0.41150248
  0
VERTEX
  5
643
  8
Layer_3
  10
202.38062
  20
344.02673
  0
VERTEX
  5
644
  8
Layer_3
  10
202.48657
  20
344.00952
  0
VERTEX
  5
645
  8
Layer_3
  10
202.5752
  20
343.95123
  0
VERTEX
  5
646
  8
Layer_3
  10
202.63733
  20
343.86087
  0
VERTEX
  5
647
  8
Layer_3
  10
202.66391
  20
343.74744
  0
SEQEND
  0
POLYLINE
  5
649
  8
Layer_3
  62
52
  66
1
  10
0
  20
0
  30
0
  0
VERTEX
  5
649
  8
Layer_3
  10
202.7077
  20
341.84149
  42
-0.41148834
  0
VERTEX
  5
64a
  8
Layer_3
  10
202.45227
  20
341.53171
  0
VERTEX
  5
64b
  8
Layer_3
  10
202.34634
  20
341.54892
  0
VERTEX
  5
64c
  8
Layer_3
  10
202.25772
  20
341.60721
  0
VERTEX
  5
64d
  8
Layer_3
  10
202.19556
  20
341.69757
  0
VERTEX
  5
64e
  8
Layer_3
  10
202.16898
  20
341.81104
  42
-0.41150248
  0
VERTEX
  5
64f
  8
Layer_3
  10
202.42441
  20
342.12079
  0
VERTEX
  5
650
  8
Layer_3
  10
202.53036
  20
342.10358
  0
VERTEX
  5
651
  8
Layer_3
  10
202.61896
  20
342.04529
  0
VERTEX
  5
652
  8
Layer_3
  10
202.68112
  20
341.95493
  0
VERTEX
  5
653
  8
Layer_3
  10
202.7077
  20
341.84149
  0
SEQEND
  0
POLYLINE
  5
655
  8
Layer_3
  62
52
  66
1
  10
0
  20
0
  30
0
  0
VERTEX
  5
655
  8
Layer_3
  10
202.80286
  20
339.29407
  42
-0.41145852
  0
VERTEX
  5
656
  8
Layer_3
  10
202.54744
  20
338.98428
  0
VERTEX
  5
657
  8
Layer_3
  10
202.44147
  20
339.0015
  0
VERTEX
  5
658
  8
Layer_3
  10
202.35287
  20
339.05978
  0
VERTEX
  5
659
  8
Layer_3
  10
202.29071
  20
339.15015
  0
VERTEX
  5
65a
  8
Layer_3
  10
202.26413
  20
339.26361
  42
-0.41151668
  0
VERTEX
  5
65b
  8
Layer_3
  10
202.51956
  20
339.57336
  0
VERTEX
  5
65c
  8
Layer_3
  10
202.62552
  20
339.55615
  0
VERTEX
  5
65d
  8
Layer_3
  10
202.71411
  20
339.49786
  0
VERTEX
  5
65e
  8
Layer_3
  10
202.77628
  20
339.4075
  0
VERTEX
  5
65f
  8
Layer_3
  10
202.80286
  20
339.29407
  0
SEQEND
  0
POLYLINE
  5
661
  8
Layer_3
  62
52
  66
1
  10
0
  20
0
  30
0
  0
VERTEX
  5
661
  8
Layer_3
  10
202.99219
  20
336.80402
  42
-0.41145996
  0
VERTEX
  5
662
  8
Layer_3
  10
202.73676
  20
336.49423
  0
VERTEX
  5
663
  8
Layer_3
  10
202.6308
  20
336.51144
  0
VERTEX
  5
664
  8
Layer_3
  10
202.54221
  20
336.56973
  0
VERTEX
  5
665
  8
Layer_3
  10
202.48004
  20
336.6601
  0
VERTEX
  5
666
  8
Layer_3
  10
202.45346
  20
336.77356
  42
-0.41151668
  0
VERTEX
  5
667
  8
Layer_3
  10
202.70889
  20
337.08331
  0
VERTEX
  5
668
  8
Layer_3
  10
202.81485
  20
337.0661
  0
VERTEX
  5
669
  8
Layer_3
  10
202.90344
  20
337.00781
  0
VERTEX
  5
66a
  8
Layer_3
  10
202.96561
  20
336.91745
  0
VERTEX
  5
66b
  8
Layer_3
  10
202.99219
  20
336.80402
  0
SEQEND
  0
POLYLINE
  5
66d
  8
Layer_3
  62
52
  66
1
  10
0
  20
0
  30
0
  0
VERTEX
  5
66d
  8
Layer_3
  10
208.07477
  20
340.2355
  42
-0.3999719
  0
VERTEX
  5
66e
  8
Layer_3
  10
207.89273
  20
339.86896
  42
-0.20530595
  0
VERTEX
  5
66f
  8
Layer_3
  10
207.6825
  20
339.89667
  42
-0.20534429
  0
VERTEX
  5
670
  8
Layer_3
  10
207.55753
  20
340.06802
  42
-0.40005435
  0
VERTEX
  5
671
  8
Layer_3
  10
207.73956
  20
340.43454
  42
-0.20519208
  0
VERTEX
  5
672
  8
Layer_3
  10
207.94983
  20
340.40686
  42
-0.20521363
  0
VERTEX
  5
673
  8
Layer_3
  10
208.07477
  20
340.2355
  0
SEQEND
  0
POLYLINE
  5
675
  8
Layer_3
  62
52
  66
1
  10
0
  20
0
  30
0
  0
VERTEX
  5
675
  8
Layer_3
  10
208.68616
  20
337.74667
  42
-0.39997668
  0
VERTEX
  5
676
  8
Layer_3
  10
208.50412
  20
337.38013
  42
-0.20530595
  0
VERTEX
  5
677
  8
Layer_3
  10
208.29388
  20
337.40784
  42
-0.205318
  0
VERTEX
  5
678
  8
Layer_3
  10
208.16891
  20
337.57919
  42
-0.40004099
  0
VERTEX
  5
679
  8
Layer_3
  10
208.35095
  20
337.94571
  42
-0.2052334
  0
VERTEX
  5
67a
  8
Layer_3
  10
208.5612
  20
337.91803
  42
-0.20524118
  0
VERTEX
  5
67b
  8
Layer_3
  10
208.68616
  20
337.74667
  0
SEQEND
  0
POLYLINE
  5
67d
  8
Layer_3
  62
52
  66
1
  10
0
  20
0
  30
0
  0
VERTEX
  5
67d
  8
Layer_3
  10
197.18927
  20
344.21021
  42
-0.20953441
  0
VERTEX
  5
67e
  8
Layer_3
  10
197.0217
  20
344.08511
  42
-0.20953177
  0
VERTEX
  5
67f
  8
Layer_3
  10
196.81613
  20
344.12354
  42
-0.3905622
  0
VERTEX
  5
680
  8
Layer_3
  10
196.73688
  20
344.53152
  42
-0.20948184
  0
VERTEX
  5
681
  8
Layer_3
  10
196.90445
  20
344.65665
  42
-0.20942518
  0
VERTEX
  5
682
  8
Layer_3
  10
197.11002
  20
344.61819
  42
-0.39057764
  0
VERTEX
  5
683
  8
Layer_3
  10
197.18927
  20
344.21021
  0
SEQEND
  0
POLYLINE
  5
685
  8
Layer_3
  62
52
  66
1
  10
0
  20
0
  30
0
  0
VERTEX
  5
685
  8
Layer_3
  10
195.96664
  20
342.15222
  42
-0.20953441
  0
VERTEX
  5
686
  8
Layer_3
  10
195.79907
  20
342.02713
  42
-0.20953177
  0
VERTEX
  5
687
  8
Layer_3
  10
195.59351
  20
342.06555
  42
-0.3905622
  0
VERTEX
  5
688
  8
Layer_3
  10
195.51425
  20
342.47354
  42
-0.20948184
  0
VERTEX
  5
689
  8
Layer_3
  10
195.68182
  20
342.59866
  42
-0.20942518
  0
VERTEX
  5
68a
  8
Layer_3
  10
195.88739
  20
342.56021
  42
-0.39057764
  0
VERTEX
  5
68b
  8
Layer_3
  10
195.96664
  20
342.15222
  0
SEQEND
  0
POLYLINE
  5
68d
  8
Layer_3
  62
52
  66
1
  10
0
  20
0
  30
0
  0
VERTEX
  5
68d
  8
Layer_3
  10
194.83347
  20
340.34937
  42
-0.20953441
  0
VERTEX
  5
68e
  8
Layer_3
  10
194.66589
  20
340.22427
  42
-0.20953177
  0
VERTEX
  5
68f
  8
Layer_3
  10
194.46033
  20
340.2627
  42
-0.3905622
  0
VERTEX
  5
690
  8
Layer_3
  10
194.38107
  20
340.67068
  42
-0.20948184
  0
VERTEX
  5
691
  8
Layer_3
  10
194.54865
  20
340.79581
  42
-0.20942518
  0
VERTEX
  5
692
  8
Layer_3
  10
194.75421
  20
340.75735
  42
-0.39057764
  0
VERTEX
  5
693
  8
Layer_3
  10
194.83347
  20
340.34937
  0
SEQEND
  0
POLYLINE
  5
695
  8
Layer_3
  62
52
  66
1
  10
0
  20
0
  30
0
  0
VERTEX
  5
695
  8
Layer_3
  10
193.72543
  20
338.37964
  42
-0.20953441
  0
VERTEX
  5
696
  8
Layer_3
  10
193.55786
  20
338.25455
  42
-0.20953177
  0
VERTEX
  5
697
  8
Layer_3
  10
193.35229
  20
338.29297
  42
-0.3905622
  0
VERTEX
  5
698
  8
Layer_3
  10
193.27304
  20
338.70096
  42
-0.20948184
  0
VERTEX
  5
699
  8
Layer_3
  10
193.44061
  20
338.82608
  42
-0.20942518
  0
VERTEX
  5
69a
  8
Layer_3
  10
193.64618
  20
338.78763
  42
-0.39057764
  0
VERTEX
  5
69b
  8
Layer_3
  10
193.72543
  20
338.37964
  0
SEQEND
  0
POLYLINE
  5
69d
  8
Layer_3
  62
52
  66
1
  10
0
  20
0
  30
0
  0
VERTEX
  5
69d
  8
Layer_3
  10
197.30753
  20
341.98499
  42
0.2025819
  0
VERTEX
  5
69e
  8
Layer_3
  10
197.41052
  20
341.79755
  42
0.20245722
  0
VERTEX
  5
69f
  8
Layer_3
  10
197.6167
  20
341.74069
  42
0.4060091
  0
VERTEX
  5
6a0
  8
Layer_3
  10
197.84012
  20
342.07877
  42
0.2025089
  0
VERTEX
  5
6a1
  8
Layer_3
  10
197.73712
  20
342.26624
  42
0.20247936
  0
VERTEX
  5
6a2
  8
Layer_3
  10
197.53091
  20
342.32306
  42
0.40606428
  0
VERTEX
  5
6a3
  8
Layer_3
  10
197.30753
  20
341.98499
  0
SEQEND
  0
POLYLINE
  5
6a5
  8
Layer_3
  62
52
  66
1
  10
0
  20
0
  30
0
  0
VERTEX
  5
6a5
  8
Layer_3
  10
197.61823
  20
339.68097
  42
0.2025819
  0
VERTEX
  5
6a6
  8
Layer_3
  10
197.72122
  20
339.49353
  42
0.20245722
  0
VERTEX
  5
6a7
  8
Layer_3
  10
197.9274
  20
339.43668
  42
0.4060091
  0
VERTEX
  5
6a8
  8
Layer_3
  10
198.15082
  20
339.77475
  42
0.2025089
  0
VERTEX
  5
6a9
  8
Layer_3
  10
198.04782
  20
339.96222
  42
0.20247936
  0
VERTEX
  5
6aa
  8
Layer_3
  10
197.84161
  20
340.01904
  42
0.40606428
  0
VERTEX
  5
6ab
  8
Layer_3
  10
197.61823
  20
339.68097
  0
SEQEND
  0
POLYLINE
  5
6ad
  8
Layer_3
  62
52
  66
1
  10
0
  20
0
  30
0
  0
VERTEX
  5
6ad
  8
Layer_3
  10
197.92526
  20
337.79144
  42
0.2025819
  0
VERTEX
  5
6ae
  8
Layer_3
  10
198.02826
  20
337.604
  42
0.20245722
  0
VERTEX
  5
6af
  8
Layer_3
  10
198.23444
  20
337.54715
  42
0.4060091
  0
VERTEX
  5
6b0
  8
Layer_3
  10
198.45786
  20
337.88522
  42
0.2025089
  0
VERTEX
  5
6b1
  8
Layer_3
  10
198.35486
  20
338.07269
  42
0.20247936
  0
VERTEX
  5
6b2
  8
Layer_3
  10
198.14865
  20
338.12952
  42
0.40606428
  0
VERTEX
  5
6b3
  8
Layer_3
  10
197.92526
  20
337.79144
  0
SEQEND
  0
POLYLINE
  5
6b5
  8
Layer_3
  62
52
  66
1
  10
0
  20
0
  30
0
  0
VERTEX
  5
6b5
  8
Layer_3
  10
190.48001
  20
339.9845
  42
0.2025819
  0
VERTEX
  5
6b6
  8
Layer_3
  10
190.58301
  20
339.79706
  42
0.20245722
  0
VERTEX
  5
6b7
  8
Layer_3
  10
190.78918
  20
339.7402
  42
0.4060091
  0
VERTEX
  5
6b8
  8
Layer_3
  10
191.0126
  20
340.07828
  42
0.2025089
  0
VERTEX
  5
6b9
  8
Layer_3
  10
190.90961
  20
340.26575
  42
0.20247936
  0
VERTEX
  5
6ba
  8
Layer_3
  10
190.7034
  20
340.32257
  42
0.40606428
  0
VERTEX
  5
6bb
  8
Layer_3
  10
190.48001
  20
339.9845
  0
SEQEND
  0
POLYLINE
  5
6bd
  8
Layer_3
  62
52
  66
1
  10
0
  20
0
  30
0
  0
VERTEX
  5
6bd
  8
Layer_3
  10
196.06183
  20
339.97876
  42
0.2025819
  0
VERTEX
  5
6be
  8
Layer_3
  10
196.16483
  20
339.79132
  42
0.20245722
  0
VERTEX
  5
6bf
  8
Layer_3
  10
196.371
  20
339.73447
  42
0.4060091
  0
VERTEX
  5
6c0
  8
Layer_3
  10
196.59442
  20
340.07254
  42
0.2025089
  0
VERTEX
  5
6c1
  8
Layer_3
  10
196.49142
  20
340.26001
  42
0.20247936
  0
VERTEX
  5
6c2
  8
Layer_3
  10
196.28522
  20
340.31683
  42
0.40606428
  0
VERTEX
  5
6c3
  8
Layer_3
  10
196.06183
  20
339.97876
  0
SEQEND
  0
POLYLINE
  5
6c5
  8
Layer_3
  62
52
  66
1
  10
0
  20
0
  30
0
  0
VERTEX
  5
6c5
  8
Layer_3
  10
191.67889
  20
343.0318
  42
0.2025819
  0
VERTEX
  5
6c6
  8
Layer_3
  10
191.78189
  20
342.84436
  42
0.20245722
  0
VERTEX
  5
6c7
  8
Layer_3
  10
191.98807
  20
342.78751
  42
0.4060091
  0
VERTEX
  5
6c8
  8
Layer_3
  10
192.21149
  20
343.12558
  42
0.2025089
  0
VERTEX
  5
6c9
  8
Layer_3
  10
192.10849
  20
343.31305
  42
0.20247936
  0
VERTEX
  5
6ca
  8
Layer_3
  10
191.90228
  20
343.36987
  42
0.40606428
  0
VERTEX
  5
6cb
  8
Layer_3
  10
191.67889
  20
343.0318
  0
SEQEND
  0
POLYLINE
  5
6cd
  8
Layer_3
  62
52
  66
1
  10
0
  20
0
  30
0
  0
VERTEX
  5
6cd
  8
Layer_3
  10
193.31714
  20
345.57904
  42
0.2025819
  0
VERTEX
  5
6ce
  8
Layer_3
  10
193.42014
  20
345.3916
  42
0.20245722
  0
VERTEX
  5
6cf
  8
Layer_3
  10
193.62631
  20
345.33475
  42
0.4060091
  0
VERTEX
  5
6d0
  8
Layer_3
  10
193.84973
  20
345.67282
  42
0.2025089
  0
VERTEX
  5
6d1
  8
Layer_3
  10
193.74673
  20
345.86029
  42
0.20247936
  0
VERTEX
  5
6d2
  8
Layer_3
  10
193.54053
  20
345.91711
  42
0.40606428
  0
VERTEX
  5
6d3
  8
Layer_3
  10
193.31714
  20
345.57904
  0
SEQEND
  0
POLYLINE
  5
6d5
  8
Layer_3
  62
52
  66
1
  10
0
  20
0
  30
0
  0
VERTEX
  5
6d5
  8
Layer_3
  10
188.58206
  20
341.15131
  42
0.2025819
  0
VERTEX
  5
6d6
  8
Layer_3
  10
188.68506
  20
340.96387
  42
0.20245722
  0
VERTEX
  5
6d7
  8
Layer_3
  10
188.89124
  20
340.90701
  42
0.4060091
  0
VERTEX
  5
6d8
  8
Layer_3
  10
189.11465
  20
341.24509
  42
0.2025089
  0
VERTEX
  5
6d9
  8
Layer_3
  10
189.01166
  20
341.43256
  42
0.20247936
  0
VERTEX
  5
6da
  8
Layer_3
  10
188.80545
  20
341.48938
  42
0.40606428
  0
VERTEX
  5
6db
  8
Layer_3
  10
188.58206
  20
341.15131
  0
SEQEND
  0
POLYLINE
  5
6dd
  8
Layer_3
  62
52
  66
1
  10
0
  20
0
  30
0
  0
VERTEX
  5
6dd
  8
Layer_3
  10
190.22318
  20
343.92279
  42
0.2025819
  0
VERTEX
  5
6de
  8
Layer_3
  10
190.32617
  20
343.73535
  42
0.20245722
  0
VERTEX
  5
6df
  8
Layer_3
  10
190.53235
  20
343.6785
  42
0.4060091
  0
VERTEX
  5
6e0
  8
Layer_3
  10
190.75577
  20
344.01657
  42
0.2025089
  0
VERTEX
  5
6e1
  8
Layer_3
  10
190.65277
  20
344.20404
  42
0.20247936
  0
VERTEX
  5
6e2
  8
Layer_3
  10
190.44656
  20
344.26086
  42
0.40606428
  0
VERTEX
  5
6e3
  8
Layer_3
  10
190.22318
  20
343.92279
  0
SEQEND
  0
POLYLINE
  5
6e5
  8
Layer_3
  62
52
  66
1
  10
0
  20
0
  30
0
  0
VERTEX
  5
6e5
  8
Layer_3
  10
191.60101
  20
346.69403
  42
0.2025819
  0
VERTEX
  5
6e6
  8
Layer_3
  10
191.70401
  20
346.50659
  42
0.20245722
  0
VERTEX
  5
6e7
  8
Layer_3
  10
191.91019
  20
346.44974
  42
0.4060091
  0
VERTEX
  5
6e8
  8
Layer_3
  10
192.13361
  20
346.78781
  42
0.2025089
  0
VERTEX
  5
6e9
  8
Layer_3
  10
192.03061
  20
346.97528
  42
0.20247936
  0
VERTEX
  5
6ea
  8
Layer_3
  10
191.8244
  20
347.0321
  42
0.40606428
  0
VERTEX
  5
6eb
  8
Layer_3
  10
191.60101
  20
346.69403
  0
SEQEND
  0
POLYLINE
  5
6ed
  8
Layer_3
  62
52
  66
1
  10
0
  20
0
  30
0
  0
VERTEX
  5
6ed
  8
Layer_3
  10
189.84787
  20
347.73859
  42
0.2025819
  0
VERTEX
  5
6ee
  8
Layer_3
  10
189.95087
  20
347.55115
  42
0.20245722
  0
VERTEX
  5
6ef
  8
Layer_3
  10
190.15704
  20
347.49429
  42
0.4060091
  0
VERTEX
  5
6f0
  8
Layer_3
  10
190.38046
  20
347.83237
  42
0.2025089
  0
VERTEX
  5
6f1
  8
Layer_3
  10
190.27747
  20
348.01984
  42
0.20247936
  0
VERTEX
  5
6f2
  8
Layer_3
  10
190.07126
  20
348.07666
  42
0.40606428
  0
VERTEX
  5
6f3
  8
Layer_3
  10
189.84787
  20
347.73859
  0
SEQEND
  0
POLYLINE
  5
6f5
  8
Layer_3
  62
52
  66
1
  10
0
  20
0
  30
0
  0
VERTEX
  5
6f5
  8
Layer_3
  10
188.40143
  20
345.04559
  42
0.2025819
  0
VERTEX
  5
6f6
  8
Layer_3
  10
188.50443
  20
344.85815
  42
0.20245722
  0
VERTEX
  5
6f7
  8
Layer_3
  10
188.7106
  20
344.8013
  42
0.4060091
  0
VERTEX
  5
6f8
  8
Layer_3
  10
188.93402
  20
345.13937
  42
0.2025089
  0
VERTEX
  5
6f9
  8
Layer_3
  10
188.83102
  20
345.32684
  42
0.20247936
  0
VERTEX
  5
6fa
  8
Layer_3
  10
188.62482
  20
345.38367
  42
0.40606428
  0
VERTEX
  5
6fb
  8
Layer_3
  10
188.40143
  20
345.04559
  0
SEQEND
  0
POLYLINE
  5
6fd
  8
Layer_3
  62
52
  66
1
  10
0
  20
0
  30
0
  0
VERTEX
  5
6fd
  8
Layer_3
  10
186.79865
  20
342.26709
  42
0.2025819
  0
VERTEX
  5
6fe
  8
Layer_3
  10
186.90164
  20
342.07965
  42
0.20245722
  0
VERTEX
  5
6ff
  8
Layer_3
  10
187.10782
  20
342.0228
  42
0.4060091
  0
VERTEX
  5
700
  8
Layer_3
  10
187.33124
  20
342.36087
  42
0.2025089
  0
VERTEX
  5
701
  8
Layer_3
  10
187.22824
  20
342.54834
  42
0.20247936
  0
VERTEX
  5
702
  8
Layer_3
  10
187.02203
  20
342.60516
  42
0.40606428
  0
VERTEX
  5
703
  8
Layer_3
  10
186.79865
  20
342.26709
  0
SEQEND
  0
POLYLINE
  5
705
  8
Layer_3
  62
52
  66
1
  10
0
  20
0
  30
0
  0
VERTEX
  5
705
  8
Layer_3
  10
219.76147
  20
355.67737
  42
-0.39595945
  0
VERTEX
  5
706
  8
Layer_3
  10
219.90884
  20
355.29263
  42
-0.20702891
  0
VERTEX
  5
707
  8
Layer_3
  10
219.76779
  20
355.13596
  42
-0.20697086
  0
VERTEX
  5
708
  8
Layer_3
  10
219.55701
  20
355.1315
  42
-0.39592769
  0
VERTEX
  5
709
  8
Layer_3
  10
219.40962
  20
355.5162
  42
-0.20704021
  0
VERTEX
  5
70a
  8
Layer_3
  10
219.55069
  20
355.67291
  42
-0.20707244
  0
VERTEX
  5
70b
  8
Layer_3
  10
219.76147
  20
355.67737
  0
SEQEND
  0
POLYLINE
  5
70d
  8
Layer_3
  62
52
  66
1
  10
0
  20
0
  30
0
  0
VERTEX
  5
70d
  8
Layer_3
  10
222.22491
  20
354.5741
  42
-0.39595945
  0
VERTEX
  5
70e
  8
Layer_3
  10
222.37228
  20
354.18936
  42
-0.20702891
  0
VERTEX
  5
70f
  8
Layer_3
  10
222.23123
  20
354.03268
  42
-0.20697086
  0
VERTEX
  5
710
  8
Layer_3
  10
222.02045
  20
354.02823
  42
-0.39592769
  0
VERTEX
  5
711
  8
Layer_3
  10
221.87306
  20
354.41293
  42
-0.20704021
  0
VERTEX
  5
712
  8
Layer_3
  10
222.01413
  20
354.56964
  42
-0.20707244
  0
VERTEX
  5
713
  8
Layer_3
  10
222.22491
  20
354.5741
  0
SEQEND
  0
POLYLINE
  5
715
  8
Layer_3
  62
52
  66
1
  10
0
  20
0
  30
0
  0
VERTEX
  5
715
  8
Layer_3
  10
221.71179
  20
357.25781
  42
-0.39594054
  0
VERTEX
  5
716
  8
Layer_3
  10
221.85916
  20
356.87308
  42
-0.20704333
  0
VERTEX
  5
717
  8
Layer_3
  10
221.71811
  20
356.7164
  42
-0.20694932
  0
VERTEX
  5
718
  8
Layer_3
  10
221.50732
  20
356.71194
  42
-0.39593449
  0
VERTEX
  5
719
  8
Layer_3
  10
221.35995
  20
357.09665
  42
-0.20705463
  0
VERTEX
  5
71a
  8
Layer_3
  10
221.50101
  20
357.25336
  42
-0.20706114
  0
VERTEX
  5
71b
  8
Layer_3
  10
221.71179
  20
357.25781
  0
SEQEND
  0
POLYLINE
  5
71d
  8
Layer_3
  62
52
  66
1
  10
0
  20
0
  30
0
  0
VERTEX
  5
71d
  8
Layer_3
  10
223.06006
  20
351.68372
  42
-0.39594734
  0
VERTEX
  5
71e
  8
Layer_3
  10
223.20741
  20
351.29901
  42
-0.20708036
  0
VERTEX
  5
71f
  8
Layer_3
  10
223.06638
  20
351.1423
  42
-0.20696062
  0
VERTEX
  5
720
  8
Layer_3
  10
222.85559
  20
351.13785
  42
-0.39594054
  0
VERTEX
  5
721
  8
Layer_3
  10
222.70822
  20
351.52258
  42
-0.20706905
  0
VERTEX
  5
722
  8
Layer_3
  10
222.84927
  20
351.67926
  42
-0.20702935
  0
VERTEX
  5
723
  8
Layer_3
  10
223.06006
  20
351.68372
  0
SEQEND
  0
POLYLINE
  5
725
  8
Layer_3
  62
52
  66
1
  10
0
  20
0
  30
0
  0
VERTEX
  5
725
  8
Layer_3
  10
220.36905
  20
353.20343
  42
-0.39594734
  0
VERTEX
  5
726
  8
Layer_3
  10
220.5164
  20
352.8187
  42
-0.20708036
  0
VERTEX
  5
727
  8
Layer_3
  10
220.37537
  20
352.66202
  42
-0.20696062
  0
VERTEX
  5
728
  8
Layer_3
  10
220.16458
  20
352.65756
  42
-0.39594054
  0
VERTEX
  5
729
  8
Layer_3
  10
220.01721
  20
353.04227
  42
-0.20706905
  0
VERTEX
  5
72a
  8
Layer_3
  10
220.15826
  20
353.19897
  42
-0.20702935
  0
VERTEX
  5
72b
  8
Layer_3
  10
220.36905
  20
353.20343
  0
SEQEND
  0
POLYLINE
  5
72d
  8
Layer_3
  62
52
  66
1
  10
0
  20
0
  30
0
  0
VERTEX
  5
72d
  8
Layer_3
  10
223.83112
  20
356.22076
  42
-0.39594054
  0
VERTEX
  5
72e
  8
Layer_3
  10
223.97849
  20
355.83603
  42
-0.20706905
  0
VERTEX
  5
72f
  8
Layer_3
  10
223.83743
  20
355.67935
  42
-0.20692884
  0
VERTEX
  5
730
  8
Layer_3
  10
223.62663
  20
355.6749
  42
-0.39594734
  0
VERTEX
  5
731
  8
Layer_3
  10
223.47928
  20
356.0596
  42
-0.20708036
  0
VERTEX
  5
732
  8
Layer_3
  10
223.62033
  20
356.21631
  42
-0.20706114
  0
VERTEX
  5
733
  8
Layer_3
  10
223.83112
  20
356.22076
  0
SEQEND
  0
POLYLINE
  5
735
  8
Layer_3
  62
52
  66
1
  10
0
  20
0
  30
0
  0
VERTEX
  5
735
  8
Layer_3
  10
225.52048
  20
355.14752
  42
-0.39594054
  0
VERTEX
  5
736
  8
Layer_3
  10
225.66785
  20
354.76279
  42
-0.20706593
  0
VERTEX
  5
737
  8
Layer_3
  10
225.52679
  20
354.60611
  42
-0.20698216
  0
VERTEX
  5
738
  8
Layer_3
  10
225.31601
  20
354.60165
  42
-0.3959466
  0
VERTEX
  5
739
  8
Layer_3
  10
225.16864
  20
354.98636
  42
-0.20705463
  0
VERTEX
  5
73a
  8
Layer_3
  10
225.30969
  20
355.14307
  42
-0.20707244
  0
VERTEX
  5
73b
  8
Layer_3
  10
225.52048
  20
355.14752
  0
SEQEND
  0
POLYLINE
  5
73d
  8
Layer_3
  62
52
  66
1
  10
0
  20
0
  30
0
  0
VERTEX
  5
73d
  8
Layer_3
  10
224.8255
  20
352.43317
  42
-0.39594054
  0
VERTEX
  5
73e
  8
Layer_3
  10
224.97287
  20
352.04843
  42
-0.20706593
  0
VERTEX
  5
73f
  8
Layer_3
  10
224.8318
  20
351.89175
  42
-0.20697192
  0
VERTEX
  5
740
  8
Layer_3
  10
224.62103
  20
351.8873
  42
-0.39595945
  0
VERTEX
  5
741
  8
Layer_3
  10
224.47366
  20
352.272
  42
-0.20705463
  0
VERTEX
  5
742
  8
Layer_3
  10
224.61472
  20
352.42871
  42
-0.20707139
  0
VERTEX
  5
743
  8
Layer_3
  10
224.8255
  20
352.43317
  0
SEQEND
  0
POLYLINE
  5
745
  8
Layer_3
  62
52
  66
1
  10
0
  20
0
  30
0
  0
VERTEX
  5
745
  8
Layer_3
  10
209.21161
  20
344.75687
  42
-0.38880608
  0
VERTEX
  5
746
  8
Layer_3
  10
209.24997
  20
344.34189
  42
-0.21024048
  0
VERTEX
  5
747
  8
Layer_3
  10
209.06944
  20
344.2374
  42
-0.21025843
  0
VERTEX
  5
748
  8
Layer_3
  10
208.87045
  20
344.29993
  42
-0.38878769
  0
VERTEX
  5
749
  8
Layer_3
  10
208.83209
  20
344.7149
  42
-0.21030225
  0
VERTEX
  5
74a
  8
Layer_3
  10
209.01263
  20
344.8194
  42
-0.21025241
  0
VERTEX
  5
74b
  8
Layer_3
  10
209.21161
  20
344.75687
  0
SEQEND
  0
POLYLINE
  5
74d
  8
Layer_3
  62
52
  66
1
  10
0
  20
0
  30
0
  0
VERTEX
  5
74d
  8
Layer_3
  10
210.9502
  20
343.20493
  42
-0.38881531
  0
VERTEX
  5
74e
  8
Layer_3
  10
210.98856
  20
342.78995
  42
-0.2102596
  0
VERTEX
  5
74f
  8
Layer_3
  10
210.80804
  20
342.68546
  42
-0.21027048
  0
VERTEX
  5
750
  8
Layer_3
  10
210.60904
  20
342.74799
  42
-0.38880785
  0
VERTEX
  5
751
  8
Layer_3
  10
210.57068
  20
343.16296
  42
-0.21034653
  0
VERTEX
  5
752
  8
Layer_3
  10
210.75122
  20
343.26746
  42
-0.21026747
  0
VERTEX
  5
753
  8
Layer_3
  10
210.9502
  20
343.20493
  0
SEQEND
  0
POLYLINE
  5
755
  8
Layer_3
  62
52
  66
1
  10
0
  20
0
  30
0
  0
VERTEX
  5
755
  8
Layer_3
  10
212.24556
  20
341.61813
  42
-0.38880608
  0
VERTEX
  5
756
  8
Layer_3
  10
212.28391
  20
341.20316
  42
-0.21021532
  0
VERTEX
  5
757
  8
Layer_3
  10
212.10339
  20
341.09866
  42
-0.21027048
  0
VERTEX
  5
758
  8
Layer_3
  10
211.90439
  20
341.16119
  42
-0.38880785
  0
VERTEX
  5
759
  8
Layer_3
  10
211.86603
  20
341.57617
  42
-0.21034653
  0
VERTEX
  5
75a
  8
Layer_3
  10
212.04657
  20
341.68066
  42
-0.2102494
  0
VERTEX
  5
75b
  8
Layer_3
  10
212.24556
  20
341.61813
  0
SEQEND
  0
POLYLINE
  5
75d
  8
Layer_3
  62
52
  66
1
  10
0
  20
0
  30
0
  0
VERTEX
  5
75d
  8
Layer_3
  10
214.46948
  20
339.86984
  42
-0.38882453
  0
VERTEX
  5
75e
  8
Layer_3
  10
214.50784
  20
339.45486
  42
-0.2102596
  0
VERTEX
  5
75f
  8
Layer_3
  10
214.32733
  20
339.35037
  42
-0.21028855
  0
VERTEX
  5
760
  8
Layer_3
  10
214.12833
  20
339.4129
  42
-0.38881708
  0
VERTEX
  5
761
  8
Layer_3
  10
214.08997
  20
339.82788
  42
-0.21034051
  0
VERTEX
  5
762
  8
Layer_3
  10
214.27049
  20
339.93237
  42
-0.21028554
  0
VERTEX
  5
763
  8
Layer_3
  10
214.46948
  20
339.86984
  0
SEQEND
  0
POLYLINE
  5
765
  8
Layer_3
  62
52
  66
1
  10
0
  20
0
  30
0
  0
VERTEX
  5
765
  8
Layer_3
  10
215.5708
  20
347.55362
  42
-0.40632801
  0
VERTEX
  5
766
  8
Layer_3
  10
215.34517
  20
347.21732
  42
-0.20236422
  0
VERTEX
  5
767
  8
Layer_3
  10
215.13931
  20
347.27573
  42
-0.20239129
  0
VERTEX
  5
768
  8
Layer_3
  10
215.03758
  20
347.46402
  42
-0.40631412
  0
VERTEX
  5
769
  8
Layer_3
  10
215.26323
  20
347.80032
  42
-0.20244765
  0
VERTEX
  5
76a
  8
Layer_3
  10
215.46909
  20
347.74188
  42
-0.20240117
  0
VERTEX
  5
76b
  8
Layer_3
  10
215.5708
  20
347.55362
  0
SEQEND
  0
POLYLINE
  5
76d
  8
Layer_3
  62
52
  66
1
  10
0
  20
0
  30
0
  0
VERTEX
  5
76d
  8
Layer_3
  10
213.3905
  20
347.28323
  42
-0.40631412
  0
VERTEX
  5
76e
  8
Layer_3
  10
213.16486
  20
346.94693
  42
-0.20236422
  0
VERTEX
  5
76f
  8
Layer_3
  10
212.95901
  20
347.00534
  42
-0.2024179
  0
VERTEX
  5
770
  8
Layer_3
  10
212.8573
  20
347.19363
  42
-0.40632801
  0
VERTEX
  5
771
  8
Layer_3
  10
213.08292
  20
347.52994
  42
-0.20246438
  0
VERTEX
  5
772
  8
Layer_3
  10
213.28877
  20
347.4715
  42
-0.20240802
  0
VERTEX
  5
773
  8
Layer_3
  10
213.3905
  20
347.28323
  0
SEQEND
  0
POLYLINE
  5
775
  8
Layer_3
  62
52
  66
1
  10
0
  20
0
  30
0
  0
VERTEX
  5
775
  8
Layer_3
  10
213.77911
  20
344.51779
  42
-0.40634191
  0
VERTEX
  5
776
  8
Layer_3
  10
213.55347
  20
344.18149
  42
-0.20238095
  0
VERTEX
  5
777
  8
Layer_3
  10
213.34763
  20
344.2399
  42
-0.2024179
  0
VERTEX
  5
778
  8
Layer_3
  10
213.24591
  20
344.42819
  42
-0.40632801
  0
VERTEX
  5
779
  8
Layer_3
  10
213.47153
  20
344.7645
  42
-0.20243092
  0
VERTEX
  5
77a
  8
Layer_3
  10
213.6774
  20
344.70605
  42
-0.20237455
  0
VERTEX
  5
77b
  8
Layer_3
  10
213.77911
  20
344.51779
  0
SEQEND
  0
POLYLINE
  5
77d
  8
Layer_3
  62
52
  66
1
  10
0
  20
0
  30
0
  0
VERTEX
  5
77d
  8
Layer_3
  10
214.41055
  20
342.31613
  42
-0.40631412
  0
VERTEX
  5
77e
  8
Layer_3
  10
214.18491
  20
341.97983
  42
-0.20236422
  0
VERTEX
  5
77f
  8
Layer_3
  10
213.97906
  20
342.03824
  42
-0.2024179
  0
VERTEX
  5
780
  8
Layer_3
  10
213.87735
  20
342.22653
  42
-0.40632801
  0
VERTEX
  5
781
  8
Layer_3
  10
214.10297
  20
342.56284
  42
-0.20246438
  0
VERTEX
  5
782
  8
Layer_3
  10
214.30882
  20
342.50439
  42
-0.20240802
  0
VERTEX
  5
783
  8
Layer_3
  10
214.41055
  20
342.31613
  0
SEQEND
  0
POLYLINE
  5
785
  8
Layer_3
  62
52
  66
1
  10
0
  20
0
  30
0
  0
VERTEX
  5
785
  8
Layer_3
  10
216.93436
  20
345.52371
  42
-0.40632801
  0
VERTEX
  5
786
  8
Layer_3
  10
216.70871
  20
345.18741
  42
-0.20238095
  0
VERTEX
  5
787
  8
Layer_3
  10
216.50287
  20
345.24582
  42
-0.20240802
  0
VERTEX
  5
788
  8
Layer_3
  10
216.40115
  20
345.43411
  42
-0.40634191
  0
VERTEX
  5
789
  8
Layer_3
  10
216.62677
  20
345.77042
  42
-0.20246438
  0
VERTEX
  5
78a
  8
Layer_3
  10
216.83264
  20
345.71198
  42
-0.2024179
  0
VERTEX
  5
78b
  8
Layer_3
  10
216.93436
  20
345.52371
  0
SEQEND
  0
POLYLINE
  5
78d
  8
Layer_3
  62
52
  66
1
  10
0
  20
0
  30
0
  0
VERTEX
  5
78d
  8
Layer_3
  10
219.62286
  20
344.80832
  42
-0.40634191
  0
VERTEX
  5
78e
  8
Layer_3
  10
219.39722
  20
344.47202
  42
-0.20238095
  0
VERTEX
  5
78f
  8
Layer_3
  10
219.19138
  20
344.53043
  42
-0.2024179
  0
VERTEX
  5
790
  8
Layer_3
  10
219.08966
  20
344.71872
  42
-0.40632801
  0
VERTEX
  5
791
  8
Layer_3
  10
219.31528
  20
345.05502
  42
-0.20243092
  0
VERTEX
  5
792
  8
Layer_3
  10
219.52115
  20
344.99658
  42
-0.20237455
  0
VERTEX
  5
793
  8
Layer_3
  10
219.62286
  20
344.80832
  0
SEQEND
  0
POLYLINE
  5
795
  8
Layer_3
  62
52
  66
1
  10
0
  20
0
  30
0
  0
VERTEX
  5
795
  8
Layer_3
  10
207.43503
  20
342.53494
  42
-0.3999719
  0
VERTEX
  5
796
  8
Layer_3
  10
207.25299
  20
342.1684
  42
-0.20530595
  0
VERTEX
  5
797
  8
Layer_3
  10
207.04276
  20
342.19611
  42
-0.20534429
  0
VERTEX
  5
798
  8
Layer_3
  10
206.91779
  20
342.36746
  42
-0.40005435
  0
VERTEX
  5
799
  8
Layer_3
  10
207.09982
  20
342.73398
  42
-0.20519208
  0
VERTEX
  5
79a
  8
Layer_3
  10
207.31009
  20
342.7063
  42
-0.20521363
  0
VERTEX
  5
79b
  8
Layer_3
  10
207.43503
  20
342.53494
  0
SEQEND
  0
POLYLINE
  5
79d
  8
Layer_3
  62
52
  66
1
  10
0
  20
0
  30
0
  0
VERTEX
  5
79d
  8
Layer_3
  10
204.96503
  20
343.76813
  42
-0.41145996
  0
VERTEX
  5
79e
  8
Layer_3
  10
204.70959
  20
343.45834
  0
VERTEX
  5
79f
  8
Layer_3
  10
204.60364
  20
343.47556
  0
VERTEX
  5
7a0
  8
Layer_3
  10
204.51505
  20
343.53384
  0
VERTEX
  5
7a1
  8
Layer_3
  10
204.45288
  20
343.62421
  0
VERTEX
  5
7a2
  8
Layer_3
  10
204.4263
  20
343.73767
  42
-0.41151525
  0
VERTEX
  5
7a3
  8
Layer_3
  10
204.68173
  20
344.04742
  0
VERTEX
  5
7a4
  8
Layer_3
  10
204.78769
  20
344.03021
  0
VERTEX
  5
7a5
  8
Layer_3
  10
204.87628
  20
343.97192
  0
VERTEX
  5
7a6
  8
Layer_3
  10
204.93845
  20
343.88156
  0
VERTEX
  5
7a7
  8
Layer_3
  10
204.96503
  20
343.76813
  0
SEQEND
  0
POLYLINE
  5
7a9
  8
Layer_3
  62
52
  66
1
  10
0
  20
0
  30
0
  0
VERTEX
  5
7a9
  8
Layer_3
  10
200.28444
  20
343.54724
  42
-0.41144433
  0
VERTEX
  5
7aa
  8
Layer_3
  10
200.02899
  20
343.23746
  0
VERTEX
  5
7ab
  8
Layer_3
  10
199.92307
  20
343.25467
  0
VERTEX
  5
7ac
  8
Layer_3
  10
199.83444
  20
343.31296
  0
VERTEX
  5
7ad
  8
Layer_3
  10
199.77228
  20
343.40332
  0
VERTEX
  5
7ae
  8
Layer_3
  10
199.7457
  20
343.51678
  42
-0.41151668
  0
VERTEX
  5
7af
  8
Layer_3
  10
200.00113
  20
343.82654
  0
VERTEX
  5
7b0
  8
Layer_3
  10
200.10709
  20
343.80933
  0
VERTEX
  5
7b1
  8
Layer_3
  10
200.19568
  20
343.75104
  0
VERTEX
  5
7b2
  8
Layer_3
  10
200.25784
  20
343.66068
  0
VERTEX
  5
7b3
  8
Layer_3
  10
200.28444
  20
343.54724
  0
SEQEND
  0
POLYLINE
  5
7b5
  8
Layer_3
  62
52
  66
1
  10
0
  20
0
  30
0
  0
VERTEX
  5
7b5
  8
Layer_3
  10
216.2565
  20
350.03275
  42
-0.40633385
  0
VERTEX
  5
7b6
  8
Layer_3
  10
216.03085
  20
349.69644
  42
-0.20237077
  0
VERTEX
  5
7b7
  8
Layer_3
  10
215.82501
  20
349.75485
  42
-0.2024179
  0
VERTEX
  5
7b8
  8
Layer_3
  10
215.7233
  20
349.94315
  42
-0.40632801
  0
VERTEX
  5
7b9
  8
Layer_3
  10
215.94893
  20
350.27945
  42
-0.20244765
  0
VERTEX
  5
7ba
  8
Layer_3
  10
216.15479
  20
350.22101
  42
-0.20240117
  0
VERTEX
  5
7bb
  8
Layer_3
  10
216.2565
  20
350.03275
  0
SEQEND
  0
POLYLINE
  5
7bd
  8
Layer_3
  62
52
  66
1
  10
0
  20
0
  30
0
  0
VERTEX
  5
7bd
  8
Layer_3
  10
221.47647
  20
346.97726
  42
-0.40632801
  0
VERTEX
  5
7be
  8
Layer_3
  10
221.25084
  20
346.64096
  42
-0.20236422
  0
VERTEX
  5
7bf
  8
Layer_3
  10
221.04498
  20
346.69937
  42
-0.20239129
  0
VERTEX
  5
7c0
  8
Layer_3
  10
220.94325
  20
346.88766
  42
-0.40631412
  0
VERTEX
  5
7c1
  8
Layer_3
  10
221.1689
  20
347.22397
  42
-0.20244765
  0
VERTEX
  5
7c2
  8
Layer_3
  10
221.37476
  20
347.16553
  42
-0.20240117
  0
VERTEX
  5
7c3
  8
Layer_3
  10
221.47647
  20
346.97726
  0
SEQEND
  0
POLYLINE
  5
7c5
  8
Layer_3
  62
52
  66
1
  10
0
  20
0
  30
0
  0
VERTEX
  5
7c5
  8
Layer_3
  10
220.65437
  20
349.8049
  42
-0.40634191
  0
VERTEX
  5
7c6
  8
Layer_3
  10
220.42874
  20
349.4686
  42
-0.20236422
  0
VERTEX
  5
7c7
  8
Layer_3
  10
220.2229
  20
349.52701
  42
-0.20243463
  0
VERTEX
  5
7c8
  8
Layer_3
  10
220.12119
  20
349.7153
  42
-0.40632801
  0
VERTEX
  5
7c9
  8
Layer_3
  10
220.3468
  20
350.05161
  42
-0.20244765
  0
VERTEX
  5
7ca
  8
Layer_3
  10
220.55267
  20
349.99316
  42
-0.20244452
  0
VERTEX
  5
7cb
  8
Layer_3
  10
220.65437
  20
349.8049
  0
SEQEND
  0
POLYLINE
  5
7cd
  8
Layer_3
  62
52
  66
1
  10
0
  20
0
  30
0
  0
VERTEX
  5
7cd
  8
Layer_3
  10
218.54834
  20
351.10751
  42
-0.40632801
  0
VERTEX
  5
7ce
  8
Layer_3
  10
218.32269
  20
350.77121
  42
-0.20236422
  0
VERTEX
  5
7cf
  8
Layer_3
  10
218.11685
  20
350.82962
  42
-0.20240117
  0
VERTEX
  5
7d0
  8
Layer_3
  10
218.01514
  20
351.01791
  42
-0.40632801
  0
VERTEX
  5
7d1
  8
Layer_3
  10
218.24075
  20
351.35422
  42
-0.20244765
  0
VERTEX
  5
7d2
  8
Layer_3
  10
218.44662
  20
351.29578
  42
-0.2024179
  0
VERTEX
  5
7d3
  8
Layer_3
  10
218.54834
  20
351.10751
  0
SEQEND
  0
POLYLINE
  5
7d5
  8
Layer_3
  62
52
  66
1
  10
0
  20
0
  30
0
  0
VERTEX
  5
7d5
  8
Layer_3
  10
183.85141
  20
353.96475
  42
-0.21035283
  0
VERTEX
  5
7d6
  8
Layer_3
  10
183.65402
  20
353.89749
  42
-0.21037178
  0
VERTEX
  5
7d7
  8
Layer_3
  10
183.47116
  20
353.99768
  42
-0.38870119
  0
VERTEX
  5
7d8
  8
Layer_3
  10
183.50125
  20
354.41345
  42
-0.21046219
  0
VERTEX
  5
7d9
  8
Layer_3
  10
183.69864
  20
354.48068
  42
-0.21052365
  0
VERTEX
  5
7da
  8
Layer_3
  10
183.88153
  20
354.38052
  42
-0.38866128
  0
VERTEX
  5
7db
  8
Layer_3
  10
183.85141
  20
353.96475
  0
SEQEND
  0
POLYLINE
  5
7dd
  8
Layer_3
  62
52
  66
1
  10
0
  20
0
  30
0
  0
VERTEX
  5
7dd
  8
Layer_3
  10
181.17691
  20
352.60001
  42
-0.21043364
  0
VERTEX
  5
7de
  8
Layer_3
  10
180.97952
  20
352.53275
  42
-0.21026141
  0
VERTEX
  5
7df
  8
Layer_3
  10
180.79663
  20
352.63293
  42
-0.38862089
  0
VERTEX
  5
7e0
  8
Layer_3
  10
180.82675
  20
353.04871
  42
-0.21046219
  0
VERTEX
  5
7e1
  8
Layer_3
  10
181.02411
  20
353.11594
  42
-0.21037076
  0
VERTEX
  5
7e2
  8
Layer_3
  10
181.207
  20
353.01578
  42
-0.38862089
  0
VERTEX
  5
7e3
  8
Layer_3
  10
181.17691
  20
352.60001
  0
SEQEND
  0
POLYLINE
  5
7e5
  8
Layer_3
  62
52
  66
1
  10
0
  20
0
  30
0
  0
VERTEX
  5
7e5
  8
Layer_3
  10
178.97244
  20
353.64572
  42
-0.21035283
  0
VERTEX
  5
7e6
  8
Layer_3
  10
178.77505
  20
353.57846
  42
-0.21037178
  0
VERTEX
  5
7e7
  8
Layer_3
  10
178.59219
  20
353.67865
  42
-0.38870119
  0
VERTEX
  5
7e8
  8
Layer_3
  10
178.62228
  20
354.09442
  42
-0.21046219
  0
VERTEX
  5
7e9
  8
Layer_3
  10
178.81967
  20
354.16165
  42
-0.21052365
  0
VERTEX
  5
7ea
  8
Layer_3
  10
179.00256
  20
354.06149
  42
-0.38866128
  0
VERTEX
  5
7eb
  8
Layer_3
  10
178.97244
  20
353.64572
  0
SEQEND
  0
POLYLINE
  5
7ed
  8
Layer_3
  62
52
  66
1
  10
0
  20
0
  30
0
  0
VERTEX
  5
7ed
  8
Layer_3
  10
178.55099
  20
355.9321
  42
-0.21035283
  0
VERTEX
  5
7ee
  8
Layer_3
  10
178.35361
  20
355.86484
  42
-0.21037178
  0
VERTEX
  5
7ef
  8
Layer_3
  10
178.17075
  20
355.96503
  42
-0.38870119
  0
VERTEX
  5
7f0
  8
Layer_3
  10
178.20084
  20
356.3808
  42
-0.21046219
  0
VERTEX
  5
7f1
  8
Layer_3
  10
178.39822
  20
356.44803
  42
-0.21052365
  0
VERTEX
  5
7f2
  8
Layer_3
  10
178.58112
  20
356.34787
  42
-0.38866128
  0
VERTEX
  5
7f3
  8
Layer_3
  10
178.55099
  20
355.9321
  0
SEQEND
  0
POLYLINE
  5
7f5
  8
Layer_3
  62
52
  66
1
  10
0
  20
0
  30
0
  0
VERTEX
  5
7f5
  8
Layer_3
  10
179.94501
  20
357.7399
  42
-0.21043364
  0
VERTEX
  5
7f6
  8
Layer_3
  10
179.74762
  20
357.67264
  42
-0.21026141
  0
VERTEX
  5
7f7
  8
Layer_3
  10
179.56473
  20
357.77283
  42
-0.38862089
  0
VERTEX
  5
7f8
  8
Layer_3
  10
179.59485
  20
358.1886
  42
-0.21046219
  0
VERTEX
  5
7f9
  8
Layer_3
  10
179.79221
  20
358.25583
  42
-0.21037076
  0
VERTEX
  5
7fa
  8
Layer_3
  10
179.9751
  20
358.15567
  42
-0.38862089
  0
VERTEX
  5
7fb
  8
Layer_3
  10
179.94501
  20
357.7399
  0
SEQEND
  0
POLYLINE
  5
7fd
  8
Layer_3
  62
52
  66
1
  10
0
  20
0
  30
0
  0
VERTEX
  5
7fd
  8
Layer_3
  10
181.97116
  20
358.48428
  42
-0.21043364
  0
VERTEX
  5
7fe
  8
Layer_3
  10
181.77377
  20
358.41702
  42
-0.21026141
  0
VERTEX
  5
7ff
  8
Layer_3
  10
181.59088
  20
358.51721
  42
-0.38862089
  0
VERTEX
  5
800
  8
Layer_3
  10
181.621
  20
358.93298
  42
-0.21046219
  0
VERTEX
  5
801
  8
Layer_3
  10
181.81836
  20
359.00021
  42
-0.21037076
  0
VERTEX
  5
802
  8
Layer_3
  10
182.00125
  20
358.90005
  42
-0.38862089
  0
VERTEX
  5
803
  8
Layer_3
  10
181.97116
  20
358.48428
  0
SEQEND
  0
POLYLINE
  5
805
  8
Layer_3
  62
52
  66
1
  10
0
  20
0
  30
0
  0
VERTEX
  5
805
  8
Layer_3
  10
183.72174
  20
357.7222
  42
-0.21043364
  0
VERTEX
  5
806
  8
Layer_3
  10
183.52435
  20
357.65494
  42
-0.21026141
  0
VERTEX
  5
807
  8
Layer_3
  10
183.34146
  20
357.75513
  42
-0.38862089
  0
VERTEX
  5
808
  8
Layer_3
  10
183.37158
  20
358.1709
  42
-0.21046219
  0
VERTEX
  5
809
  8
Layer_3
  10
183.56894
  20
358.23813
  42
-0.21037076
  0
VERTEX
  5
80a
  8
Layer_3
  10
183.75183
  20
358.13797
  42
-0.38862089
  0
VERTEX
  5
80b
  8
Layer_3
  10
183.72174
  20
357.7222
  0
SEQEND
  0
POLYLINE
  5
80d
  8
Layer_3
  62
52
  66
1
  10
0
  20
0
  30
0
  0
VERTEX
  5
80d
  8
Layer_3
  10
184.48358
  20
356.00296
  42
-0.21043364
  0
VERTEX
  5
80e
  8
Layer_3
  10
184.28619
  20
355.9357
  42
-0.21026141
  0
VERTEX
  5
80f
  8
Layer_3
  10
184.1033
  20
356.03589
  42
-0.38862089
  0
VERTEX
  5
810
  8
Layer_3
  10
184.13342
  20
356.45166
  42
-0.21046219
  0
VERTEX
  5
811
  8
Layer_3
  10
184.33078
  20
356.51889
  42
-0.21037076
  0
VERTEX
  5
812
  8
Layer_3
  10
184.51367
  20
356.41873
  42
-0.38862089
  0
VERTEX
  5
813
  8
Layer_3
  10
184.48358
  20
356.00296
  0
SEQEND
  0
CIRCLE
  5
815
  8
Layer_3
  62
52
  10
249.49188
  20
386.11789
  30
0
  40
0.24999993
  0
CIRCLE
  5
815
  8
Layer_3
  62
52
  10
251.90912
  20
386.11789
  30
0
  40
0.24999993
  0
CIRCLE
  5
815
  8
Layer_3
  62
52
  10
254.89514
  20
386.11789
  30
0
  40
0.24999993
  0
CIRCLE
  5
815
  8
Layer_3
  62
52
  10
257.31235
  20
386.11789
  30
0
  40
0.24999993
  0
CIRCLE
  5
815
  8
Layer_3
  62
52
  10
260.29831
  20
386.11789
  30
0
  40
0.24999993
  0
CIRCLE
  5
815
  8
Layer_3
  62
52
  10
262.67477
  20
386.10721
  30
0
  40
0.24999993
  0
CIRCLE
  5
815
  8
Layer_3
  62
52
  10
265.34604
  20
386.11789
  30
0
  40
0.24999993
  0
CIRCLE
  5
815
  8
Layer_3
  62
52
  10
268.11874
  20
386.11789
  30
0
  40
0.24999993
  0
CIRCLE
  5
815
  8
Layer_3
  62
52
  10
270.89145
  20
386.11789
  30
0
  40
0.24999993
  0
CIRCLE
  5
815
  8
Layer_3
  62
52
  10
274.34708
  20
386.11789
  30
0
  40
0.24999993
  0
CIRCLE
  5
815
  8
Layer_3
  62
52
  10
277.11978
  20
386.11789
  30
0
  40
0.24999993
  0
CIRCLE
  5
815
  8
Layer_3
  62
52
  10
279.89249
  20
386.11789
  30
0
  40
0.24999993
  0
CIRCLE
  5
815
  8
Layer_3
  62
52
  10
273.35373
  20
354.8815
  30
0
  40
0.24999993
  0
CIRCLE
  5
815
  8
Layer_3
  62
52
  10
274.05014
  20
357.19632
  30
0
  40
0.24999993
  0
CIRCLE
  5
815
  8
Layer_3
  62
52
  10
274.91031
  20
360.05569
  30
0
  40
0.24999993
  0
CIRCLE
  5
815
  8
Layer_3
  62
52
  10
275.60666
  20
362.37039
  30
0
  40
0.24999993
  0
CIRCLE
  5
815
  8
Layer_3
  62
52
  10
276.46689
  20
365.22983
  30
0
  40
0.24999993
  0
CIRCLE
  5
815
  8
Layer_3
  62
52
  10
277.16177
  20
367.50247
  30
0
  40
0.24999993
  0
CIRCLE
  5
815
  8
Layer_3
  62
52
  10
277.92105
  20
370.06363
  30
0
  40
0.24999993
  0
CIRCLE
  5
815
  8
Layer_3
  62
52
  10
278.71982
  20
372.71875
  30
0
  40
0.24999993
  0
CIRCLE
  5
815
  8
Layer_3
  62
52
  10
279.51852
  20
375.37393
  30
0
  40
0.24999993
  0
CIRCLE
  5
815
  8
Layer_3
  62
52
  10
280.51401
  20
378.68301
  30
0
  40
0.24999993
  0
CIRCLE
  5
815
  8
Layer_3
  62
52
  10
281.31277
  20
381.33813
  30
0
  40
0.24999993
  0
CIRCLE
  5
815
  8
Layer_3
  62
52
  10
282.11154
  20
383.99332
  30
0
  40
0.24999993
  0
CIRCLE
  5
815
  8
Layer_3
  62
52
  10
237.59048
  20
355.44107
  30
0
  40
0.24999993
  0
CIRCLE
  5
815
  8
Layer_3
  62
52
  10
238.28683
  20
357.75589
  30
0
  40
0.24999993
  0
CIRCLE
  5
815
  8
Layer_3
  62
52
  10
239.14703
  20
360.61526
  30
0
  40
0.24999993
  0
CIRCLE
  5
815
  8
Layer_3
  62
52
  10
239.84338
  20
362.92996
  30
0
  40
0.24999993
  0
CIRCLE
  5
815
  8
Layer_3
  62
52
  10
240.70361
  20
365.7894
  30
0
  40
0.24999993
  0
CIRCLE
  5
815
  8
Layer_3
  62
52
  10
241.39853
  20
368.06201
  30
0
  40
0.24999993
  0
CIRCLE
  5
815
  8
Layer_3
  62
52
  10
242.15775
  20
370.6232
  30
0
  40
0.24999993
  0
CIRCLE
  5
815
  8
Layer_3
  62
52
  10
242.95651
  20
373.27835
  30
0
  40
0.24999993
  0
CIRCLE
  5
815
  8
Layer_3
  62
52
  10
243.75528
  20
375.93347
  30
0
  40
0.24999993
  0
CIRCLE
  5
815
  8
Layer_3
  62
52
  10
244.75076
  20
379.24258
  30
0
  40
0.24999993
  0
CIRCLE
  5
815
  8
Layer_3
  62
52
  10
245.54953
  20
381.89771
  30
0
  40
0.24999993
  0
CIRCLE
  5
815
  8
Layer_3
  62
52
  10
246.3483
  20
384.55289
  30
0
  40
0.24999993
  0
CIRCLE
  5
815
  8
Layer_3
  62
52
  10
249.19839
  20
305.25699
  30
0
  40
0.24999993
  0
CIRCLE
  5
815
  8
Layer_3
  62
52
  10
250.62994
  20
307.20474
  30
0
  40
0.24999993
  0
CIRCLE
  5
815
  8
Layer_3
  62
52
  10
252.39832
  20
309.61075
  30
0
  40
0.24999993
  0
CIRCLE
  5
815
  8
Layer_3
  62
52
  10
253.8299
  20
311.5585
  30
0
  40
0.24999993
  0
CIRCLE
  5
815
  8
Layer_3
  62
52
  10
255.59833
  20
313.96451
  30
0
  40
0.24999993
  0
CIRCLE
  5
815
  8
Layer_3
  62
52
  10
257.01431
  20
315.87302
  30
0
  40
0.24999993
  0
CIRCLE
  5
815
  8
Layer_3
  62
52
  10
258.58768
  20
318.03189
  30
0
  40
0.24999993
  0
CIRCLE
  5
815
  8
Layer_3
  62
52
  10
260.22971
  20
320.26602
  30
0
  40
0.24999993
  0
CIRCLE
  5
815
  8
Layer_3
  62
52
  10
261.8718
  20
322.50015
  30
0
  40
0.24999993
  0
CIRCLE
  5
815
  8
Layer_3
  62
52
  10
263.91824
  20
325.28464
  30
0
  40
0.24999993
  0
CIRCLE
  5
815
  8
Layer_3
  62
52
  10
265.56033
  20
327.51877
  30
0
  40
0.24999993
  0
CIRCLE
  5
815
  8
Layer_3
  62
52
  10
267.20242
  20
329.75296
  30
0
  40
0.24999993
  0
CIRCLE
  5
815
  8
Layer_3
  62
52
  10
247.47482
  20
307.26419
  30
0
  40
0.24999993
  0
CIRCLE
  5
815
  8
Layer_3
  62
52
  10
247.46472
  20
309.68143
  30
0
  40
0.24999993
  0
CIRCLE
  5
815
  8
Layer_3
  62
52
  10
247.45224
  20
312.66739
  30
0
  40
0.24999993
  0
CIRCLE
  5
815
  8
Layer_3
  62
52
  10
247.44214
  20
315.08456
  30
0
  40
0.24999993
  0
CIRCLE
  5
815
  8
Layer_3
  62
52
  10
247.42966
  20
318.07053
  30
0
  40
0.24999993
  0
CIRCLE
  5
815
  8
Layer_3
  62
52
  10
247.43048
  20
320.44705
  30
0
  40
0.24999993
  0
CIRCLE
  5
815
  8
Layer_3
  62
52
  10
247.40854
  20
323.11826
  30
0
  40
0.24999993
  0
CIRCLE
  5
815
  8
Layer_3
  62
52
  10
247.39694
  20
325.8909
  30
0
  40
0.24999993
  0
CIRCLE
  5
815
  8
Layer_3
  62
52
  10
247.38538
  20
328.6636
  30
0
  40
0.24999993
  0
CIRCLE
  5
815
  8
Layer_3
  62
52
  10
247.37091
  20
332.11917
  30
0
  40
0.24999993
  0
CIRCLE
  5
815
  8
Layer_3
  62
52
  10
247.35931
  20
334.89188
  30
0
  40
0.24999993
  0
CIRCLE
  5
815
  8
Layer_3
  62
52
  10
247.34772
  20
337.66458
  30
0
  40
0.24999993
  0
CIRCLE
  5
815
  8
Layer_3
  62
52
  10
272.431
  20
353.45853
  30
0
  40
0.24999993
  0
CIRCLE
  5
815
  8
Layer_3
  62
52
  10
274.98373
  20
353.45853
  30
0
  40
0.24999993
  0
CIRCLE
  5
815
  8
Layer_3
  62
52
  10
277.24326
  20
353.45853
  30
0
  40
0.24999993
  0
CIRCLE
  5
815
  8
Layer_3
  62
52
  10
279.46823
  20
353.44131
  30
0
  40
0.24999993
  0
CIRCLE
  5
815
  8
Layer_3
  62
52
  10
281.62411
  20
353.41611
  30
0
  40
0.24999993
  0
CIRCLE
  5
815
  8
Layer_3
  62
52
  10
283.51065
  20
352.64127
  30
0
  40
0.24999993
  0
CIRCLE
  5
815
  8
Layer_3
  62
52
  10
283.44327
  20
350.65372
  30
0
  40
0.24999993
  0
CIRCLE
  5
815
  8
Layer_3
  62
52
  10
281.85995
  20
348.83456
  30
0
  40
0.24999993
  0
CIRCLE
  5
815
  8
Layer_3
  62
52
  10
280.54611
  20
346.98172
  30
0
  40
0.24999993
  0
CIRCLE
  5
815
  8
Layer_3
  62
52
  10
279.05954
  20
344.75504
  30
0
  40
0.24999993
  0
CIRCLE
  5
815
  8
Layer_3
  62
52
  10
277.41464
  20
342.49326
  30
0
  40
0.24999993
  0
CIRCLE
  5
815
  8
Layer_3
  62
52
  10
275.76974
  20
340.02591
  30
0
  40
0.24999993
  0
CIRCLE
  5
815
  8
Layer_3
  62
52
  10
274.022
  20
337.66129
  30
0
  40
0.24999993
  0
CIRCLE
  5
815
  8
Layer_3
  62
52
  10
272.27426
  20
335.70792
  30
0
  40
0.24999993
  0
CIRCLE
  5
815
  8
Layer_3
  62
52
  10
270.43118
  20
333.11795
  30
0
  40
0.24999993
  0
CIRCLE
  5
815
  8
Layer_3
  62
52
  10
268.98447
  20
331.39005
  30
0
  40
0.24999993
  0
CIRCLE
  5
815
  8
Layer_3
  62
52
  10
246.88086
  20
341.15677
  30
0
  40
0.24999993
  0
CIRCLE
  5
815
  8
Layer_3
  62
52
  10
244.10504
  20
341.46518
  30
0
  40
0.24999993
  0
CIRCLE
  5
815
  8
Layer_3
  62
52
  10
241.22644
  20
341.56802
  30
0
  40
0.24999993
  0
CIRCLE
  5
815
  8
Layer_3
  62
52
  10
238.65625
  20
341.67081
  30
0
  40
0.24999993
  0
CIRCLE
  5
815
  8
Layer_3
  62
52
  10
235.77765
  20
341.87637
  30
0
  40
0.24999993
  0
CIRCLE
  5
815
  8
Layer_3
  62
52
  10
236.49731
  20
352.67117
  30
0
  40
0.24999993
  0
CIRCLE
  5
815
  8
Layer_3
  62
52
  10
235.36642
  20
349.89542
  30
0
  40
0.24999993
  0
CIRCLE
  5
815
  8
Layer_3
  62
52
  10
234.54398
  20
347.42801
  30
0
  40
0.24999993
  0
CIRCLE
  5
815
  8
Layer_3
  62
52
  10
233.70865
  20
344.27957
  30
0
  40
0.24999993
  0
CIRCLE
  5
815
  8
Layer_3
  62
52
  10
257.45425
  20
366.59177
  30
0
  40
2.4999993
  0
CIRCLE
  5
815
  8
Layer_3
  62
52
  10
256.98044
  20
356.15689
  30
0
  40
0.24999993
  0
CIRCLE
  5
815
  8
Layer_3
  62
52
  10
256.96884
  20
358.9296
  30
0
  40
0.24999993
  0
CIRCLE
  5
815
  8
Layer_3
  62
52
  10
256.95724
  20
361.70224
  30
0
  40
0.24999993
  0
CIRCLE
  5
815
  8
Layer_3
  62
52
  10
254.86139
  20
371.27472
  30
0
  40
0.24999993
  0
CIRCLE
  5
815
  8
Layer_3
  62
52
  10
254.84985
  20
374.04745
  30
0
  40
0.24999993
  0
CIRCLE
  5
815
  8
Layer_3
  62
52
  10
254.83826
  20
376.82013
  30
0
  40
0.24999993
  0
CIRCLE
  5
815
  8
Layer_3
  62
52
  10
259.4877
  20
371.14624
  30
0
  40
0.24999993
  0
CIRCLE
  5
815
  8
Layer_3
  62
52
  10
259.4761
  20
373.91895
  30
0
  40
0.24999993
  0
CIRCLE
  5
815
  8
Layer_3
  62
52
  10
259.46451
  20
376.69159
  30
0
  40
0.24999993
  0
CIRCLE
  5
815
  8
Layer_3
  62
52
  10
254.08398
  20
333.82254
  30
0
  40
0.24999993
  0
CIRCLE
  5
815
  8
Layer_3
  62
52
  10
254.07245
  20
336.59525
  30
0
  40
0.24999993
  0
CIRCLE
  5
815
  8
Layer_3
  62
52
  10
254.06085
  20
339.36795
  30
0
  40
0.24999993
  0
CIRCLE
  5
815
  8
Layer_3
  62
52
  10
258.45328
  20
333.82254
  30
0
  40
0.24999993
  0
CIRCLE
  5
815
  8
Layer_3
  62
52
  10
258.44168
  20
336.59525
  30
0
  40
0.24999993
  0
CIRCLE
  5
815
  8
Layer_3
  62
52
  10
258.43008
  20
339.36795
  30
0
  40
0.24999993
  0
CIRCLE
  5
815
  8
Layer_3
  62
52
  10
257.29147
  20
373.79041
  30
0
  40
0.24999993
  0
CIRCLE
  5
815
  8
Layer_3
  62
52
  10
256.25708
  20
336.46677
  30
0
  40
0.24999993
  0
CIRCLE
  5
815
  8
Layer_3
  62
52
  10
258.99277
  20
347.85379
  30
0
  40
0.24999993
  0
CIRCLE
  5
815
  8
Layer_3
  62
52
  10
253.72388
  20
347.98233
  30
0
  40
0.24999993
  0
CIRCLE
  5
815
  8
Layer_3
  62
52
  10
258.60721
  20
350.29544
  30
0
  40
0.24999993
  0
CIRCLE
  5
815
  8
Layer_3
  62
52
  10
256.03705
  20
350.93802
  30
0
  40
0.24999993
  0
CIRCLE
  5
815
  8
Layer_3
  62
52
  10
258.99277
  20
345.66916
  30
0
  40
0.24999993
  0
CIRCLE
  5
815
  8
Layer_3
  62
52
  10
256.67953
  20
345.02664
  30
0
  40
0.24999993
  0
CIRCLE
  5
815
  8
Layer_3
  62
52
  10
254.62347
  20
345.79764
  30
0
  40
0.24999993
  0
CIRCLE
  5
815
  8
Layer_3
  62
52
  10
254.10944
  20
349.65292
  30
0
  40
0.24999993
  0
CIRCLE
  5
815
  8
Layer_3
  62
52
  10
257.0455
  20
347.84818
  30
0
  40
0.24999993
  0
POLYLINE
  5
815
  8
Layer_3
  62
52
  66
1
  10
0
  20
0
  30
0
  0
VERTEX
  5
815
  8
Layer_3
  10
233.34251
  20
340.35806
  0
VERTEX
  5
816
  8
Layer_3
  10
233.46861
  20
340.25925
  42
0.015437058
  0
VERTEX
  5
817
  8
Layer_3
  10
233.73192
  20
340.07657
  0
VERTEX
  5
818
  8
Layer_3
  10
233.86891
  20
339.99323
  0
VERTEX
  5
819
  8
Layer_3
  10
234.00887
  20
339.91541
  0
VERTEX
  5
81a
  8
Layer_3
  10
234.15199
  20
339.8432
  0
VERTEX
  5
81b
  8
Layer_3
  10
234.29771
  20
339.77667
  0
VERTEX
  5
81c
  8
Layer_3
  10
234.446
  20
339.71588
  0
VERTEX
  5
81d
  8
Layer_3
  10
234.59663
  20
339.66107
  0
VERTEX
  5
81e
  8
Layer_3
  10
234.74928
  20
339.61237
  0
VERTEX
  5
81f
  8
Layer_3
  10
234.90367
  20
339.56955
  0
VERTEX
  5
820
  8
Layer_3
  10
235.05968
  20
339.53293
  0
VERTEX
  5
821
  8
Layer_3
  10
235.21706
  20
339.50247
  0
VERTEX
  5
822
  8
Layer_3
  10
235.37544
  20
339.4783
  0
VERTEX
  5
823
  8
Layer_3
  10
235.53462
  20
339.46033
  0
VERTEX
  5
824
  8
Layer_3
  10
235.69456
  20
339.44861
  0
VERTEX
  5
825
  8
Layer_3
  10
235.90816
  20
339.44308
  0
VERTEX
  5
826
  8
Layer_3
  10
245.07802
  20
339.44308
  0
VERTEX
  5
827
  8
Layer_3
  10
245.07802
  20
307.17715
  0
VERTEX
  5
828
  8
Layer_3
  10
245.08104
  20
307.017
  0
VERTEX
  5
829
  8
Layer_3
  10
245.09004
  20
306.85709
  0
VERTEX
  5
82a
  8
Layer_3
  10
245.10582
  20
306.69754
  0
VERTEX
  5
82b
  8
Layer_3
  10
245.12782
  20
306.53873
  0
VERTEX
  5
82c
  8
Layer_3
  10
245.15633
  20
306.38113
  0
VERTEX
  5
82d
  8
Layer_3
  10
245.19084
  20
306.22458
  0
VERTEX
  5
82e
  8
Layer_3
  10
245.23164
  20
306.06955
  0
VERTEX
  5
82f
  8
Layer_3
  10
245.27855
  20
305.91635
  0
VERTEX
  5
830
  8
Layer_3
  10
245.33113
  20
305.76511
  0
VERTEX
  5
831
  8
Layer_3
  10
245.38994
  20
305.616
  0
VERTEX
  5
832
  8
Layer_3
  10
245.45464
  20
305.46933
  0
VERTEX
  5
833
  8
Layer_3
  10
245.52495
  20
305.32541
  0
VERTEX
  5
834
  8
Layer_3
  10
245.60094
  20
305.18423
  0
VERTEX
  5
835
  8
Layer_3
  10
245.68254
  20
305.0463
  0
VERTEX
  5
836
  8
Layer_3
  10
245.76945
  20
304.91165
  0
VERTEX
  5
837
  8
Layer_3
  10
245.86143
  20
304.78061
  0
VERTEX
  5
838
  8
Layer_3
  10
245.95885
  20
304.65311
  0
VERTEX
  5
839
  8
Layer_3
  10
246.06099
  20
304.52975
  0
VERTEX
  5
83a
  8
Layer_3
  10
246.16808
  20
304.41037
  0
VERTEX
  5
83b
  8
Layer_3
  10
246.27974
  20
304.29556
  0
VERTEX
  5
83c
  8
Layer_3
  10
246.39574
  20
304.18509
  0
VERTEX
  5
83d
  8
Layer_3
  10
246.5161
  20
304.07919
  0
VERTEX
  5
83e
  8
Layer_3
  10
246.64064
  20
303.97824
  0
VERTEX
  5
83f
  8
Layer_3
  10
246.76891
  20
303.88242
  0
VERTEX
  5
840
  8
Layer_3
  10
246.90117
  20
303.79153
  0
VERTEX
  5
841
  8
Layer_3
  10
247.03658
  20
303.70602
  0
VERTEX
  5
842
  8
Layer_3
  10
247.17534
  20
303.62607
  0
VERTEX
  5
843
  8
Layer_3
  10
247.31728
  20
303.55142
  0
VERTEX
  5
844
  8
Layer_3
  10
247.46199
  20
303.48251
  0
VERTEX
  5
845
  8
Layer_3
  10
247.6093
  20
303.41959
  0
VERTEX
  5
846
  8
Layer_3
  10
247.75896
  20
303.36234
  0
VERTEX
  5
847
  8
Layer_3
  10
247.91078
  20
303.31107
  0
VERTEX
  5
848
  8
Layer_3
  10
248.06462
  20
303.26578
  0
VERTEX
  5
849
  8
Layer_3
  10
248.22002
  20
303.22678
  0
VERTEX
  5
84a
  8
Layer_3
  10
248.37682
  20
303.1937
  0
VERTEX
  5
84b
  8
Layer_3
  10
248.53477
  20
303.16696
  0
VERTEX
  5
84c
  8
Layer_3
  10
248.69374
  20
303.14658
  0
VERTEX
  5
84d
  8
Layer_3
  10
248.85332
  20
303.13229
  0
VERTEX
  5
84e
  8
Layer_3
  10
249.01347
  20
303.12457
  0
VERTEX
  5
84f
  8
Layer_3
  10
249.17363
  20
303.12299
  0
VERTEX
  5
850
  8
Layer_3
  10
249.33446
  20
303.12781
  0
VERTEX
  5
851
  8
Layer_3
  10
249.4944
  20
303.1391
  0
VERTEX
  5
852
  8
Layer_3
  10
249.65376
  20
303.15649
  0
VERTEX
  5
853
  8
Layer_3
  10
249.81215
  20
303.18024
  0
VERTEX
  5
854
  8
Layer_3
  10
249.96953
  20
303.21014
  0
VERTEX
  5
855
  8
Layer_3
  10
250.12572
  20
303.2464
  0
VERTEX
  5
856
  8
Layer_3
  10
250.28035
  20
303.28876
  0
VERTEX
  5
857
  8
Layer_3
  10
250.43318
  20
303.33722
  0
VERTEX
  5
858
  8
Layer_3
  10
250.58382
  20
303.39148
  0
VERTEX
  5
859
  8
Layer_3
  10
250.73228
  20
303.45184
  0
VERTEX
  5
85a
  8
Layer_3
  10
250.87819
  20
303.51797
  0
VERTEX
  5
85b
  8
Layer_3
  10
251.02153
  20
303.58981
  0
VERTEX
  5
85c
  8
Layer_3
  10
251.1617
  20
303.66721
  0
VERTEX
  5
85d
  8
Layer_3
  10
251.29887
  20
303.75015
  0
VERTEX
  5
85e
  8
Layer_3
  10
251.43269
  20
303.8385
  0
VERTEX
  5
85f
  8
Layer_3
  10
251.56276
  20
303.93213
  0
VERTEX
  5
860
  8
Layer_3
  10
251.68907
  20
304.0307
  0
VERTEX
  5
861
  8
Layer_3
  10
251.81142
  20
304.13428
  0
VERTEX
  5
862
  8
Layer_3
  10
251.92961
  20
304.24237
  0
VERTEX
  5
863
  8
Layer_3
  10
252.04344
  20
304.35516
  0
VERTEX
  5
864
  8
Layer_3
  10
252.15273
  20
304.4726
  0
VERTEX
  5
865
  8
Layer_3
  10
252.25725
  20
304.59393
  0
VERTEX
  5
866
  8
Layer_3
  10
252.40196
  20
304.77985
  0
VERTEX
  5
867
  8
Layer_3
  10
284.97687
  20
349.2092
  0
VERTEX
  5
868
  8
Layer_3
  10
285.06915
  20
349.34048
  0
VERTEX
  5
869
  8
Layer_3
  10
285.15607
  20
349.47507
  0
VERTEX
  5
86a
  8
Layer_3
  10
285.23755
  20
349.61307
  0
VERTEX
  5
86b
  8
Layer_3
  10
285.31354
  20
349.754
  0
VERTEX
  5
86c
  8
Layer_3
  10
285.38403
  20
349.89792
  0
VERTEX
  5
86d
  8
Layer_3
  10
285.44855
  20
350.04465
  0
VERTEX
  5
86e
  8
Layer_3
  10
285.50739
  20
350.1937
  0
VERTEX
  5
86f
  8
Layer_3
  10
285.56024
  20
350.34494
  0
VERTEX
  5
870
  8
Layer_3
  10
285.60718
  20
350.4982
  0
VERTEX
  5
871
  8
Layer_3
  10
285.64795
  20
350.65317
  0
VERTEX
  5
872
  8
Layer_3
  10
285.68256
  20
350.80978
  0
VERTEX
  5
873
  8
Layer_3
  10
285.71088
  20
350.96738
  0
VERTEX
  5
874
  8
Layer_3
  10
285.73303
  20
351.12613
  0
VERTEX
  5
875
  8
Layer_3
  10
285.74884
  20
351.28568
  0
VERTEX
  5
876
  8
Layer_3
  10
285.75885
  20
351.44565
  0
VERTEX
  5
877
  8
Layer_3
  10
285.76184
  20
351.6058
  0
VERTEX
  5
878
  8
Layer_3
  10
285.75885
  20
351.76614
  0
VERTEX
  5
879
  8
Layer_3
  10
285.74884
  20
351.92612
  0
VERTEX
  5
87a
  8
Layer_3
  10
285.73328
  20
352.08548
  0
VERTEX
  5
87b
  8
Layer_3
  10
285.71106
  20
352.24423
  0
VERTEX
  5
87c
  8
Layer_3
  10
285.6828
  20
352.40201
  0
VERTEX
  5
87d
  8
Layer_3
  10
285.64838
  20
352.55844
  0
VERTEX
  5
87e
  8
Layer_3
  10
285.6076
  20
352.71341
  0
VERTEX
  5
87f
  8
Layer_3
  10
285.56091
  20
352.86667
  0
VERTEX
  5
880
  8
Layer_3
  10
285.508
  20
353.0181
  0
VERTEX
  5
881
  8
Layer_3
  10
285.44922
  20
353.16714
  0
VERTEX
  5
882
  8
Layer_3
  10
285.3847
  20
353.31387
  0
VERTEX
  5
883
  8
Layer_3
  10
285.31439
  20
353.45779
  0
VERTEX
  5
884
  8
Layer_3
  10
285.2384
  20
353.59891
  0
VERTEX
  5
885
  8
Layer_3
  10
285.15686
  20
353.73691
  0
VERTEX
  5
886
  8
Layer_3
  10
285.06995
  20
353.87155
  0
VERTEX
  5
887
  8
Layer_3
  10
284.97784
  20
354.00259
  0
VERTEX
  5
888
  8
Layer_3
  10
284.88068
  20
354.1301
  0
VERTEX
  5
889
  8
Layer_3
  10
284.77832
  20
354.25345
  0
VERTEX
  5
88a
  8
Layer_3
  10
284.67145
  20
354.37277
  0
VERTEX
  5
88b
  8
Layer_3
  10
284.55975
  20
354.48782
  0
VERTEX
  5
88c
  8
Layer_3
  10
284.44379
  20
354.5983
  0
VERTEX
  5
88d
  8
Layer_3
  10
284.32336
  20
354.70401
  0
VERTEX
  5
88e
  8
Layer_3
  10
284.19885
  20
354.80496
  0
VERTEX
  5
88f
  8
Layer_3
  10
284.07062
  20
354.90097
  0
VERTEX
  5
890
  8
Layer_3
  10
283.93854
  20
354.99185
  0
VERTEX
  5
891
  8
Layer_3
  10
283.80292
  20
355.07736
  0
VERTEX
  5
892
  8
Layer_3
  10
283.66418
  20
355.15732
  0
VERTEX
  5
893
  8
Layer_3
  10
283.52222
  20
355.23196
  0
VERTEX
  5
894
  8
Layer_3
  10
283.37769
  20
355.30087
  0
VERTEX
  5
895
  8
Layer_3
  10
283.23041
  20
355.36404
  0
VERTEX
  5
896
  8
Layer_3
  10
283.08057
  20
355.42123
  0
VERTEX
  5
897
  8
Layer_3
  10
282.92889
  20
355.4725
  0
VERTEX
  5
898
  8
Layer_3
  10
282.77509
  20
355.51785
  0
VERTEX
  5
899
  8
Layer_3
  10
282.61969
  20
355.55707
  0
VERTEX
  5
89a
  8
Layer_3
  10
282.46289
  20
355.5899
  0
VERTEX
  5
89b
  8
Layer_3
  10
282.30493
  20
355.61664
  0
VERTEX
  5
89c
  8
Layer_3
  10
282.14594
  20
355.63727
  0
VERTEX
  5
89d
  8
Layer_3
  10
281.98621
  20
355.65131
  0
VERTEX
  5
89e
  8
Layer_3
  10
281.82623
  20
355.65921
  0
VERTEX
  5
89f
  8
Layer_3
  10
281.70728
  20
355.66098
  0
VERTEX
  5
8a0
  8
Layer_3
  10
275.1698
  20
355.66098
  0
VERTEX
  5
8a1
  8
Layer_3
  10
284.2149
  20
382.78622
  0
VERTEX
  5
8a2
  8
Layer_3
  10
284.26263
  20
382.93906
  0
VERTEX
  5
8a3
  8
Layer_3
  10
284.3042
  20
383.0939
  0
VERTEX
  5
8a4
  8
Layer_3
  10
284.3396
  20
383.25027
  0
VERTEX
  5
8a5
  8
Layer_3
  10
284.3689
  20
383.40768
  0
VERTEX
  5
8a6
  8
Layer_3
  10
284.39191
  20
383.56644
  0
VERTEX
  5
8a7
  8
Layer_3
  10
284.40875
  20
383.7258
  0
VERTEX
  5
8a8
  8
Layer_3
  10
284.41907
  20
383.88577
  0
VERTEX
  5
8a9
  8
Layer_3
  10
284.42303
  20
384.04593
  0
VERTEX
  5
8aa
  8
Layer_3
  10
284.42102
  20
384.20609
  0
VERTEX
  5
8ab
  8
Layer_3
  10
284.41205
  20
384.36624
  0
VERTEX
  5
8ac
  8
Layer_3
  10
284.39703
  20
384.52579
  0
VERTEX
  5
8ad
  8
Layer_3
  10
284.37579
  20
384.68454
  0
VERTEX
  5
8ae
  8
Layer_3
  10
284.34851
  20
384.84232
  0
VERTEX
  5
8af
  8
Layer_3
  10
284.31458
  20
384.99911
  0
VERTEX
  5
8b0
  8
Layer_3
  10
284.27478
  20
385.15433
  0
VERTEX
  5
8b1
  8
Layer_3
  10
284.22888
  20
385.30777
  0
VERTEX
  5
8b2
  8
Layer_3
  10
284.17682
  20
385.45938
  0
VERTEX
  5
8b3
  8
Layer_3
  10
284.11902
  20
385.60886
  0
VERTEX
  5
8b4
  8
Layer_3
  10
284.0553
  20
385.75577
  0
VERTEX
  5
8b5
  8
Layer_3
  10
283.9856
  20
385.9003
  0
VERTEX
  5
8b6
  8
Layer_3
  10
283.9104
  20
386.04184
  0
SEQEND
  0
POLYLINE
  5
8b8
  8
Layer_3
  62
52
  66
1
  10
0
  20
0
  30
0
  0
VERTEX
  5
8b8
  8
Layer_3
  10
282.61835
  20
387.44168
  0
VERTEX
  5
8b9
  8
Layer_3
  10
282.48315
  20
387.52798
  0
SEQEND
  0
POLYLINE
  5
8bb
  8
Layer_3
  62
52
  66
1
  10
0
  20
0
  30
0
  0
VERTEX
  5
8bb
  8
Layer_3
  10
282.48315
  20
387.52798
  0
VERTEX
  5
8bc
  8
Layer_3
  10
282.34473
  20
387.60867
  0
VERTEX
  5
8bd
  8
Layer_3
  10
282.20343
  20
387.68408
  0
VERTEX
  5
8be
  8
Layer_3
  10
282.05908
  20
387.75369
  0
VERTEX
  5
8bf
  8
Layer_3
  10
281.91217
  20
387.81769
  0
VERTEX
  5
8c0
  8
Layer_3
  10
281.76276
  20
387.8757
  0
VERTEX
  5
8c1
  8
Layer_3
  10
281.61127
  20
387.9278
  0
VERTEX
  5
8c2
  8
Layer_3
  10
281.45764
  20
387.97391
  0
VERTEX
  5
8c3
  8
Layer_3
  10
281.30243
  20
388.01389
  0
VERTEX
  5
8c4
  8
Layer_3
  10
281.14587
  20
388.04779
  0
VERTEX
  5
8c5
  8
Layer_3
  10
280.9881
  20
388.0755
  0
VERTEX
  5
8c6
  8
Layer_3
  10
280.82928
  20
388.09671
  0
VERTEX
  5
8c7
  8
Layer_3
  10
280.66974
  20
388.11179
  0
VERTEX
  5
8c8
  8
Layer_3
  10
280.50958
  20
388.12079
  0
VERTEX
  5
8c9
  8
Layer_3
  10
280.3653
  20
388.1228
  0
VERTEX
  5
8ca
  8
Layer_3
  10
248.45793
  20
388.09561
  0
VERTEX
  5
8cb
  8
Layer_3
  10
248.29756
  20
388.09259
  0
VERTEX
  5
8cc
  8
Layer_3
  10
248.13762
  20
388.08261
  0
VERTEX
  5
8cd
  8
Layer_3
  10
247.97826
  20
388.06659
  0
VERTEX
  5
8ce
  8
Layer_3
  10
247.81947
  20
388.0444
  0
VERTEX
  5
8cf
  8
Layer_3
  10
247.6617
  20
388.0159
  0
VERTEX
  5
8d0
  8
Layer_3
  10
247.50529
  20
387.98129
  0
VERTEX
  5
8d1
  8
Layer_3
  10
247.3503
  20
387.94028
  0
VERTEX
  5
8d2
  8
Layer_3
  10
247.19707
  20
387.8934
  0
VERTEX
  5
8d3
  8
Layer_3
  10
247.04582
  20
387.8403
  0
VERTEX
  5
8d4
  8
Layer_3
  10
246.89696
  20
387.78149
  0
VERTEX
  5
8d5
  8
Layer_3
  10
246.75026
  20
387.71671
  0
VERTEX
  5
8d6
  8
Layer_3
  10
246.60634
  20
387.6463
  0
VERTEX
  5
8d7
  8
Layer_3
  10
246.46538
  20
387.5701
  0
VERTEX
  5
8d8
  8
Layer_3
  10
246.32741
  20
387.48849
  0
VERTEX
  5
8d9
  8
Layer_3
  10
246.19279
  20
387.40152
  0
VERTEX
  5
8da
  8
Layer_3
  10
246.06194
  20
387.3092
  0
VERTEX
  5
8db
  8
Layer_3
  10
245.93468
  20
387.21182
  0
VERTEX
  5
8dc
  8
Layer_3
  10
245.81129
  20
387.10965
  0
VERTEX
  5
8dd
  8
Layer_3
  10
245.69212
  20
387.00241
  0
VERTEX
  5
8de
  8
Layer_3
  10
245.5771
  20
386.89072
  0
VERTEX
  5
8df
  8
Layer_3
  10
245.46684
  20
386.77451
  0
VERTEX
  5
8e0
  8
Layer_3
  10
245.36113
  20
386.65396
  0
VERTEX
  5
8e1
  8
Layer_3
  10
245.26036
  20
386.52945
  0
VERTEX
  5
8e2
  8
Layer_3
  10
245.16457
  20
386.40097
  0
VERTEX
  5
8e3
  8
Layer_3
  10
245.07387
  20
386.26889
  0
VERTEX
  5
8e4
  8
Layer_3
  10
244.98839
  20
386.13333
  0
VERTEX
  5
8e5
  8
Layer_3
  10
244.90837
  20
385.99435
  0
VERTEX
  5
8e6
  8
Layer_3
  10
244.83397
  20
385.85239
  0
VERTEX
  5
8e7
  8
Layer_3
  10
244.76527
  20
385.70767
  0
VERTEX
  5
8e8
  8
Layer_3
  10
244.70229
  20
385.56039
  0
VERTEX
  5
8e9
  8
Layer_3
  10
244.64528
  20
385.41055
  0
VERTEX
  5
8ea
  8
Layer_3
  10
244.58827
  20
385.24026
  0
VERTEX
  5
8eb
  8
Layer_3
  10
232.03496
  20
344.69656
  0
VERTEX
  5
8ec
  8
Layer_3
  10
231.99055
  20
344.54276
  0
VERTEX
  5
8ed
  8
Layer_3
  10
231.95235
  20
344.38693
  0
VERTEX
  5
8ee
  8
Layer_3
  10
231.92024
  20
344.22995
  0
VERTEX
  5
8ef
  8
Layer_3
  10
231.89455
  20
344.07181
  0
VERTEX
  5
8f0
  8
Layer_3
  10
231.87495
  20
343.91281
  0
VERTEX
  5
8f1
  8
Layer_3
  10
231.86174
  20
343.75308
  0
VERTEX
  5
8f2
  8
Layer_3
  10
231.85475
  20
343.59293
  0
VERTEX
  5
8f3
  8
Layer_3
  10
231.85414
  20
343.43277
  0
VERTEX
  5
8f4
  8
Layer_3
  10
231.86012
  20
343.27261
  0
VERTEX
  5
8f5
  8
Layer_3
  10
231.87202
  20
343.11282
  0
VERTEX
  5
8f6
  8
Layer_3
  10
231.89043
  20
342.95364
  0
VERTEX
  5
8f7
  8
Layer_3
  10
231.91515
  20
342.79532
  0
VERTEX
  5
8f8
  8
Layer_3
  10
231.94585
  20
342.63791
  0
VERTEX
  5
8f9
  8
Layer_3
  10
231.98305
  20
342.48209
  0
VERTEX
  5
8fa
  8
Layer_3
  10
232.02623
  20
342.32767
  0
VERTEX
  5
8fb
  8
Layer_3
  10
232.07555
  20
342.17526
  0
VERTEX
  5
8fc
  8
Layer_3
  10
232.13075
  20
342.02481
  0
VERTEX
  5
8fd
  8
Layer_3
  10
232.19194
  20
341.87674
  0
VERTEX
  5
8fe
  8
Layer_3
  10
232.25883
  20
341.73105
  0
VERTEX
  5
8ff
  8
Layer_3
  10
232.33153
  20
341.58829
  0
SEQEND
  0
CIRCLE
  5
901
  8
Layer_3
  62
52
  10
138.70807
  20
361.23965
  30
0
  40
2.4999993
  0
CIRCLE
  5
901
  8
Layer_3
  62
52
  10
136.94031
  20
386.75735
  30
0
  40
0.24999993
  0
CIRCLE
  5
901
  8
Layer_3
  62
52
  10
134.93674
  20
386.63821
  30
0
  40
0.24999993
  0
CIRCLE
  5
901
  8
Layer_3
  62
52
  10
132.89456
  20
386.19666
  30
0
  40
0.24999993
  0
CIRCLE
  5
901
  8
Layer_3
  62
52
  10
130.93515
  20
385.69443
  30
0
  40
0.24999993
  0
CIRCLE
  5
901
  8
Layer_3
  62
52
  10
128.90158
  20
385.01517
  30
0
  40
0.24999993
  0
CIRCLE
  5
901
  8
Layer_3
  62
52
  10
127.04139
  20
384.15018
  30
0
  40
0.24999993
  0
CIRCLE
  5
901
  8
Layer_3
  62
52
  10
124.94286
  20
383.18387
  30
0
  40
0.24999993
  0
CIRCLE
  5
901
  8
Layer_3
  62
52
  10
122.93439
  20
381.78906
  30
0
  40
0.24999993
  0
CIRCLE
  5
901
  8
Layer_3
  62
52
  10
120.94032
  20
380.25735
  30
0
  40
0.24999993
  0
CIRCLE
  5
901
  8
Layer_3
  62
52
  10
118.99157
  20
378.51248
  30
0
  40
0.24999993
  0
CIRCLE
  5
901
  8
Layer_3
  62
52
  10
116.94032
  20
376.00735
  30
0
  40
0.24999993
  0
CIRCLE
  5
901
  8
Layer_3
  62
52
  10
115.14666
  20
373.97083
  30
0
  40
0.24999993
  0
CIRCLE
  5
901
  8
Layer_3
  62
52
  10
114.15489
  20
371.75449
  30
0
  40
0.24999993
  0
CIRCLE
  5
901
  8
Layer_3
  62
52
  10
113.08496
  20
369.53757
  30
0
  40
0.24999993
  0
CIRCLE
  5
901
  8
Layer_3
  62
52
  10
112.16866
  20
366.92334
  30
0
  40
0.24999993
  0
CIRCLE
  5
901
  8
Layer_3
  62
52
  10
111.52182
  20
364.82156
  30
0
  40
0.24999993
  0
CIRCLE
  5
901
  8
Layer_3
  62
52
  10
111.09062
  20
362.53079
  30
0
  40
0.24999993
  0
CIRCLE
  5
901
  8
Layer_3
  62
52
  10
110.82111
  20
359.99747
  30
0
  40
0.24999993
  0
CIRCLE
  5
901
  8
Layer_3
  62
52
  10
110.94535
  20
356.76889
  30
0
  40
0.24999993
  0
CIRCLE
  5
901
  8
Layer_3
  62
52
  10
111.4973
  20
353.89877
  30
0
  40
0.24999993
  0
CIRCLE
  5
901
  8
Layer_3
  62
52
  10
112.04924
  20
350.9183
  30
0
  40
0.24999993
  0
CIRCLE
  5
901
  8
Layer_3
  62
52
  10
113.04274
  20
348.37936
  30
0
  40
0.24999993
  0
CIRCLE
  5
901
  8
Layer_3
  62
52
  10
114.03623
  20
346.28195
  30
0
  40
0.24999993
  0
CIRCLE
  5
901
  8
Layer_3
  62
52
  10
115.05644
  20
344.51321
  30
0
  40
0.24999993
  0
CIRCLE
  5
901
  8
Layer_3
  62
52
  10
116.32851
  20
342.53397
  30
0
  40
0.24999993
  0
CIRCLE
  5
901
  8
Layer_3
  62
52
  10
117.74286
  20
340.68839
  30
0
  40
0.24999993
  0
CIRCLE
  5
901
  8
Layer_3
  62
52
  10
119.29699
  20
339.10873
  30
0
  40
0.24999993
  0
CIRCLE
  5
901
  8
Layer_3
  62
52
  10
121.13931
  20
337.66116
  30
0
  40
0.24999993
  0
CIRCLE
  5
901
  8
Layer_3
  62
52
  10
122.98161
  20
336.34525
  30
0
  40
0.24999993
  0
CIRCLE
  5
901
  8
Layer_3
  62
52
  10
140.89456
  20
386.81808
  30
0
  40
0.24999993
  0
CIRCLE
  5
901
  8
Layer_3
  62
52
  10
142.8981
  20
386.69885
  30
0
  40
0.24999993
  0
CIRCLE
  5
901
  8
Layer_3
  62
52
  10
144.94031
  20
386.25735
  30
0
  40
0.24999993
  0
CIRCLE
  5
901
  8
Layer_3
  62
52
  10
146.89969
  20
385.75516
  30
0
  40
0.24999993
  0
CIRCLE
  5
901
  8
Layer_3
  62
52
  10
148.93326
  20
385.0759
  30
0
  40
0.24999993
  0
CIRCLE
  5
901
  8
Layer_3
  62
52
  10
150.79349
  20
384.21091
  30
0
  40
0.24999993
  0
CIRCLE
  5
901
  8
Layer_3
  62
52
  10
152.892
  20
383.24454
  30
0
  40
0.24999993
  0
CIRCLE
  5
901
  8
Layer_3
  62
52
  10
154.90048
  20
381.84976
  30
0
  40
0.24999993
  0
CIRCLE
  5
901
  8
Layer_3
  62
52
  10
158.84332
  20
378.57309
  30
0
  40
0.24999993
  0
CIRCLE
  5
901
  8
Layer_3
  62
52
  10
156.89456
  20
380.31808
  30
0
  40
0.24999993
  0
CIRCLE
  5
901
  8
Layer_3
  62
52
  10
162.68823
  20
374.03156
  30
0
  40
0.24999993
  0
CIRCLE
  5
901
  8
Layer_3
  62
52
  10
160.89456
  20
376.06808
  30
0
  40
0.24999993
  0
CIRCLE
  5
901
  8
Layer_3
  62
52
  10
164.74994
  20
369.5983
  30
0
  40
0.24999993
  0
CIRCLE
  5
901
  8
Layer_3
  62
52
  10
163.67999
  20
371.81522
  30
0
  40
0.24999993
  0
CIRCLE
  5
901
  8
Layer_3
  62
52
  10
165.66623
  20
366.98404
  30
0
  40
0.24999993
  0
CIRCLE
  5
901
  8
Layer_3
  62
52
  10
166.31308
  20
364.88229
  30
0
  40
0.24999993
  0
CIRCLE
  5
901
  8
Layer_3
  62
52
  10
166.74426
  20
362.59152
  30
0
  40
0.24999993
  0
CIRCLE
  5
901
  8
Layer_3
  62
52
  10
167.01376
  20
360.05814
  30
0
  40
0.24999993
  0
CIRCLE
  5
901
  8
Layer_3
  62
52
  10
166.88953
  20
356.82962
  30
0
  40
0.24999993
  0
CIRCLE
  5
901
  8
Layer_3
  62
52
  10
166.33759
  20
353.9595
  30
0
  40
0.24999993
  0
CIRCLE
  5
901
  8
Layer_3
  62
52
  10
165.78564
  20
350.97897
  30
0
  40
0.24999993
  0
CIRCLE
  5
901
  8
Layer_3
  62
52
  10
164.79214
  20
348.44003
  30
0
  40
0.24999993
  0
CIRCLE
  5
901
  8
Layer_3
  62
52
  10
163.79868
  20
346.34268
  30
0
  40
0.24999993
  0
CIRCLE
  5
901
  8
Layer_3
  62
52
  10
162.77844
  20
344.57388
  30
0
  40
0.24999993
  0
CIRCLE
  5
901
  8
Layer_3
  62
52
  10
161.50638
  20
342.59464
  30
0
  40
0.24999993
  0
CIRCLE
  5
901
  8
Layer_3
  62
52
  10
160.09201
  20
340.74905
  30
0
  40
0.24999993
  0
CIRCLE
  5
901
  8
Layer_3
  62
52
  10
158.53787
  20
339.16946
  30
0
  40
0.24999993
  0
CIRCLE
  5
901
  8
Layer_3
  62
52
  10
156.69556
  20
337.72189
  30
0
  40
0.24999993
  0
CIRCLE
  5
901
  8
Layer_3
  62
52
  10
154.85327
  20
336.40598
  30
0
  40
0.24999993
  0
CIRCLE
  5
901
  8
Layer_3
  62
52
  10
124.57483
  20
334.64786
  30
0
  40
0.24999993
  0
CIRCLE
  5
901
  8
Layer_3
  62
52
  10
124.57483
  20
332.23062
  30
0
  40
0.24999993
  0
CIRCLE
  5
901
  8
Layer_3
  62
52
  10
124.57483
  20
329.2446
  30
0
  40
0.24999993
  0
CIRCLE
  5
901
  8
Layer_3
  62
52
  10
124.57483
  20
326.82736
  30
0
  40
0.24999993
  0
CIRCLE
  5
901
  8
Layer_3
  62
52
  10
124.57483
  20
323.8414
  30
0
  40
0.24999993
  0
CIRCLE
  5
901
  8
Layer_3
  62
52
  10
124.57483
  20
321.70853
  30
0
  40
0.24999993
  0
CIRCLE
  5
901
  8
Layer_3
  62
52
  10
124.57483
  20
318.79361
  30
0
  40
0.24999993
  0
CIRCLE
  5
901
  8
Layer_3
  62
52
  10
124.57483
  20
316.0209
  30
0
  40
0.24999993
  0
CIRCLE
  5
901
  8
Layer_3
  62
52
  10
124.57483
  20
313.2482
  30
0
  40
0.24999993
  0
CIRCLE
  5
901
  8
Layer_3
  62
52
  10
126.06783
  20
311.39975
  30
0
  40
0.24999993
  0
CIRCLE
  5
901
  8
Layer_3
  62
52
  10
127.77411
  20
309.83566
  30
0
  40
0.24999993
  0
CIRCLE
  5
901
  8
Layer_3
  62
52
  10
153.11707
  20
334.12344
  30
0
  40
0.24999993
  0
CIRCLE
  5
901
  8
Layer_3
  62
52
  10
153.11707
  20
331.70621
  30
0
  40
0.24999993
  0
CIRCLE
  5
901
  8
Layer_3
  62
52
  10
153.11707
  20
328.72025
  30
0
  40
0.24999993
  0
CIRCLE
  5
901
  8
Layer_3
  62
52
  10
153.11707
  20
326.30301
  30
0
  40
0.24999993
  0
CIRCLE
  5
901
  8
Layer_3
  62
52
  10
153.11707
  20
323.31699
  30
0
  40
0.24999993
  0
CIRCLE
  5
901
  8
Layer_3
  62
52
  10
153.11707
  20
321.18417
  30
0
  40
0.24999993
  0
CIRCLE
  5
901
  8
Layer_3
  62
52
  10
153.11707
  20
318.26926
  30
0
  40
0.24999993
  0
CIRCLE
  5
901
  8
Layer_3
  62
52
  10
153.11707
  20
315.49655
  30
0
  40
0.24999993
  0
CIRCLE
  5
901
  8
Layer_3
  62
52
  10
153.11707
  20
312.72385
  30
0
  40
0.24999993
  0
CIRCLE
  5
901
  8
Layer_3
  62
52
  10
127.88074
  20
329.3157
  30
0
  40
0.24999993
  0
CIRCLE
  5
901
  8
Layer_3
  62
52
  10
130.29797
  20
329.3157
  30
0
  40
0.24999993
  0
CIRCLE
  5
901
  8
Layer_3
  62
52
  10
133.28397
  20
329.3157
  30
0
  40
0.24999993
  0
CIRCLE
  5
901
  8
Layer_3
  62
52
  10
135.70117
  20
329.3157
  30
0
  40
0.24999993
  0
CIRCLE
  5
901
  8
Layer_3
  62
52
  10
138.68716
  20
329.3157
  30
0
  40
0.24999993
  0
CIRCLE
  5
901
  8
Layer_3
  62
52
  10
140.82001
  20
329.3157
  30
0
  40
0.24999993
  0
CIRCLE
  5
901
  8
Layer_3
  62
52
  10
143.73492
  20
329.3157
  30
0
  40
0.24999993
  0
CIRCLE
  5
901
  8
Layer_3
  62
52
  10
146.50763
  20
329.3157
  30
0
  40
0.24999993
  0
CIRCLE
  5
901
  8
Layer_3
  62
52
  10
149.28033
  20
329.3157
  30
0
  40
0.24999993
  0
CIRCLE
  5
901
  8
Layer_3
  62
52
  10
127.66747
  20
323.91251
  30
0
  40
0.24999993
  0
CIRCLE
  5
901
  8
Layer_3
  62
52
  10
130.08469
  20
323.91251
  30
0
  40
0.24999993
  0
CIRCLE
  5
901
  8
Layer_3
  62
52
  10
133.07068
  20
323.91251
  30
0
  40
0.24999993
  0
CIRCLE
  5
901
  8
Layer_3
  62
52
  10
135.48792
  20
323.91251
  30
0
  40
0.24999993
  0
CIRCLE
  5
901
  8
Layer_3
  62
52
  10
138.47391
  20
323.91251
  30
0
  40
0.24999993
  0
CIRCLE
  5
901
  8
Layer_3
  62
52
  10
140.60675
  20
323.91251
  30
0
  40
0.24999993
  0
CIRCLE
  5
901
  8
Layer_3
  62
52
  10
143.52164
  20
323.91251
  30
0
  40
0.24999993
  0
CIRCLE
  5
901
  8
Layer_3
  62
52
  10
146.29434
  20
323.91251
  30
0
  40
0.24999993
  0
CIRCLE
  5
901
  8
Layer_3
  62
52
  10
149.06705
  20
323.91251
  30
0
  40
0.24999993
  0
CIRCLE
  5
901
  8
Layer_3
  62
52
  10
127.59636
  20
318.58035
  30
0
  40
0.24999993
  0
CIRCLE
  5
901
  8
Layer_3
  62
52
  10
130.01358
  20
318.58035
  30
0
  40
0.24999993
  0
CIRCLE
  5
901
  8
Layer_3
  62
52
  10
132.99957
  20
318.58035
  30
0
  40
0.24999993
  0
CIRCLE
  5
901
  8
Layer_3
  62
52
  10
135.41681
  20
318.58035
  30
0
  40
0.24999993
  0
CIRCLE
  5
901
  8
Layer_3
  62
52
  10
138.4028
  20
318.58035
  30
0
  40
0.24999993
  0
CIRCLE
  5
901
  8
Layer_3
  62
52
  10
140.53564
  20
318.58035
  30
0
  40
0.24999993
  0
CIRCLE
  5
901
  8
Layer_3
  62
52
  10
143.45053
  20
318.58035
  30
0
  40
0.24999993
  0
CIRCLE
  5
901
  8
Layer_3
  62
52
  10
146.22324
  20
318.58035
  30
0
  40
0.24999993
  0
CIRCLE
  5
901
  8
Layer_3
  62
52
  10
148.99594
  20
318.58035
  30
0
  40
0.24999993
  0
CIRCLE
  5
901
  8
Layer_3
  62
52
  10
129.79141
  20
308.72482
  30
0
  40
0.24999993
  0
CIRCLE
  5
901
  8
Layer_3
  62
52
  10
132.27975
  20
307.39175
  30
0
  40
0.24999993
  0
CIRCLE
  5
901
  8
Layer_3
  62
52
  10
134.50146
  20
307.30289
  30
0
  40
0.24999993
  0
CIRCLE
  5
901
  8
Layer_3
  62
52
  10
136.54544
  20
307.21402
  30
0
  40
0.24999993
  0
CIRCLE
  5
901
  8
Layer_3
  62
52
  10
138.67828
  20
307.39175
  30
0
  40
0.24999993
  0
CIRCLE
  5
901
  8
Layer_3
  62
52
  10
140.81113
  20
307.30289
  30
0
  40
0.24999993
  0
CIRCLE
  5
901
  8
Layer_3
  62
52
  10
142.944
  20
307.56949
  30
0
  40
0.24999993
  0
CIRCLE
  5
901
  8
Layer_3
  62
52
  10
145.07684
  20
307.65836
  30
0
  40
0.24999993
  0
CIRCLE
  5
901
  8
Layer_3
  62
52
  10
147.38742
  20
308.72482
  30
0
  40
0.24999993
  0
CIRCLE
  5
901
  8
Layer_3
  62
52
  10
151.4754
  20
311.1243
  30
0
  40
0.24999993
  0
CIRCLE
  5
901
  8
Layer_3
  62
52
  10
149.25366
  20
310.05783
  30
0
  40
0.24999993
  0
CIRCLE
  5
901
  8
Layer_3
  62
52
  10
120.62721
  20
354.00735
  30
0
  40
0.24999993
  0
CIRCLE
  5
901
  8
Layer_3
  62
52
  10
127.23745
  20
354.00735
  30
0
  40
0.24999993
  0
CIRCLE
  5
901
  8
Layer_3
  62
52
  10
133.35742
  20
354.00735
  30
0
  40
0.24999993
  0
CIRCLE
  5
901
  8
Layer_3
  62
52
  10
137.94031
  20
354.00735
  30
0
  40
0.24999993
  0
CIRCLE
  5
901
  8
Layer_3
  62
52
  10
142.42883
  20
354.00735
  30
0
  40
0.24999993
  0
CIRCLE
  5
901
  8
Layer_3
  62
52
  10
148.03012
  20
354.00735
  30
0
  40
0.24999993
  0
CIRCLE
  5
901
  8
Layer_3
  62
52
  10
152.61301
  20
354.00735
  30
0
  40
0.24999993
  0
CIRCLE
  5
901
  8
Layer_3
  62
52
  10
158.81787
  20
354.00735
  30
0
  40
0.24999993
  0
CIRCLE
  5
901
  8
Layer_3
  62
52
  10
120.62721
  20
351.90292
  30
0
  40
0.24999993
  0
CIRCLE
  5
901
  8
Layer_3
  62
52
  10
127.23745
  20
351.90292
  30
0
  40
0.24999993
  0
CIRCLE
  5
901
  8
Layer_3
  62
52
  10
133.09332
  20
351.90292
  30
0
  40
0.24999993
  0
CIRCLE
  5
901
  8
Layer_3
  62
52
  10
137.94031
  20
351.90292
  30
0
  40
0.24999993
  0
CIRCLE
  5
901
  8
Layer_3
  62
52
  10
142.42883
  20
351.90292
  30
0
  40
0.24999993
  0
CIRCLE
  5
901
  8
Layer_3
  62
52
  10
148.03012
  20
351.90292
  30
0
  40
0.24999993
  0
CIRCLE
  5
901
  8
Layer_3
  62
52
  10
152.61301
  20
351.90292
  30
0
  40
0.24999993
  0
CIRCLE
  5
901
  8
Layer_3
  62
52
  10
156.94031
  20
352.00735
  30
0
  40
0.24999993
  0
CIRCLE
  5
901
  8
Layer_3
  62
52
  10
120.62721
  20
350.0358
  30
0
  40
0.24999993
  0
CIRCLE
  5
901
  8
Layer_3
  62
52
  10
127.23745
  20
350.1207
  30
0
  40
0.24999993
  0
CIRCLE
  5
901
  8
Layer_3
  62
52
  10
133.09332
  20
350.1207
  30
0
  40
0.24999993
  0
CIRCLE
  5
901
  8
Layer_3
  62
52
  10
137.94031
  20
350.0358
  30
0
  40
0.24999993
  0
CIRCLE
  5
901
  8
Layer_3
  62
52
  10
142.42883
  20
350.0358
  30
0
  40
0.24999993
  0
CIRCLE
  5
901
  8
Layer_3
  62
52
  10
148.03012
  20
350.0358
  30
0
  40
0.24999993
  0
CIRCLE
  5
901
  8
Layer_3
  62
52
  10
152.61301
  20
350.0358
  30
0
  40
0.24999993
  0
CIRCLE
  5
901
  8
Layer_3
  62
52
  10
156.94031
  20
350.00735
  30
0
  40
0.24999993
  0
CIRCLE
  5
901
  8
Layer_3
  62
52
  10
120.62721
  20
348.25357
  30
0
  40
0.24999993
  0
CIRCLE
  5
901
  8
Layer_3
  62
52
  10
127.23745
  20
348.25357
  30
0
  40
0.24999993
  0
CIRCLE
  5
901
  8
Layer_3
  62
52
  10
133.09332
  20
348.25357
  30
0
  40
0.24999993
  0
CIRCLE
  5
901
  8
Layer_3
  62
52
  10
137.94031
  20
348.25357
  30
0
  40
0.24999993
  0
CIRCLE
  5
901
  8
Layer_3
  62
52
  10
142.42883
  20
348.25357
  30
0
  40
0.24999993
  0
CIRCLE
  5
901
  8
Layer_3
  62
52
  10
148.03012
  20
348.25357
  30
0
  40
0.24999993
  0
CIRCLE
  5
901
  8
Layer_3
  62
52
  10
152.61301
  20
348.25357
  30
0
  40
0.24999993
  0
CIRCLE
  5
901
  8
Layer_3
  62
52
  10
157.94031
  20
348.00735
  30
0
  40
0.24999993
  0
CIRCLE
  5
901
  8
Layer_3
  62
52
  10
120.62721
  20
346.38651
  30
0
  40
0.24999993
  0
CIRCLE
  5
901
  8
Layer_3
  62
52
  10
127.23745
  20
346.38651
  30
0
  40
0.24999993
  0
CIRCLE
  5
901
  8
Layer_3
  62
52
  10
133.09332
  20
346.38651
  30
0
  40
0.24999993
  0
CIRCLE
  5
901
  8
Layer_3
  62
52
  10
137.94031
  20
346.38651
  30
0
  40
0.24999993
  0
CIRCLE
  5
901
  8
Layer_3
  62
52
  10
142.42883
  20
346.38651
  30
0
  40
0.24999993
  0
CIRCLE
  5
901
  8
Layer_3
  62
52
  10
148.03012
  20
346.38651
  30
0
  40
0.24999993
  0
CIRCLE
  5
901
  8
Layer_3
  62
52
  10
152.61301
  20
346.38651
  30
0
  40
0.24999993
  0
CIRCLE
  5
901
  8
Layer_3
  62
52
  10
158.55377
  20
346.38651
  30
0
  40
0.24999993
  0
CIRCLE
  5
901
  8
Layer_3
  62
52
  10
155.32877
  20
350.20554
  30
0
  40
0.24999993
  0
CIRCLE
  5
901
  8
Layer_3
  62
52
  10
154.22549
  20
349.01736
  30
0
  40
0.24999993
  0
CIRCLE
  5
901
  8
Layer_3
  62
52
  10
143.87158
  20
352.32724
  30
0
  40
0.24999993
  0
CIRCLE
  5
901
  8
Layer_3
  62
52
  10
144.63538
  20
350.96939
  30
0
  40
0.24999993
  0
CIRCLE
  5
901
  8
Layer_3
  62
52
  10
145.65381
  20
349.78122
  30
0
  40
0.24999993
  0
CIRCLE
  5
901
  8
Layer_3
  62
52
  10
146.58734
  20
348.59305
  30
0
  40
0.24999993
  0
CIRCLE
  5
901
  8
Layer_3
  62
52
  10
128.76505
  20
350.1207
  30
0
  40
0.24999993
  0
CIRCLE
  5
901
  8
Layer_3
  62
52
  10
131.65057
  20
350.1207
  30
0
  40
0.24999993
  0
CIRCLE
  5
901
  8
Layer_3
  62
52
  10
130.03809
  20
350.1207
  30
0
  40
0.24999993
  0
CIRCLE
  5
901
  8
Layer_3
  62
52
  10
116.79868
  20
353.85489
  30
0
  40
0.24999993
  0
CIRCLE
  5
901
  8
Layer_3
  62
52
  10
118.66576
  20
354.02463
  30
0
  40
0.24999993
  0
CIRCLE
  5
901
  8
Layer_3
  62
52
  10
122.44555
  20
354.03989
  30
0
  40
0.24999993
  0
CIRCLE
  5
901
  8
Layer_3
  62
52
  10
124.43678
  20
354.02463
  30
0
  40
0.24999993
  0
CIRCLE
  5
901
  8
Layer_3
  62
52
  10
138.11707
  20
373.8306
  30
0
  40
0.24999993
  0
CIRCLE
  5
901
  8
Layer_3
  62
52
  10
138.11707
  20
371.7261
  30
0
  40
0.24999993
  0
CIRCLE
  5
901
  8
Layer_3
  62
52
  10
131.55841
  20
369.68628
  30
0
  40
0.24999993
  0
CIRCLE
  5
901
  8
Layer_3
  62
52
  10
132.3222
  20
368.32837
  30
0
  40
0.24999993
  0
CIRCLE
  5
901
  8
Layer_3
  62
52
  10
143.94031
  20
370.00735
  30
0
  40
0.24999993
  0
CIRCLE
  5
901
  8
Layer_3
  62
52
  10
143.17648
  20
368.64948
  30
0
  40
0.24999993
  0
POLYLINE
  5
901
  8
Layer_3
  62
52
  66
1
  10
0
  20
0
  30
0
  0
VERTEX
  5
901
  8
Layer_3
  10
168.75877
  20
361.40579
  0
VERTEX
  5
902
  8
Layer_3
  10
168.70267
  20
362.0206
  0
VERTEX
  5
903
  8
Layer_3
  10
168.69217
  20
362.12271
  0
VERTEX
  5
904
  8
Layer_3
  10
168.62126
  20
362.73734
  0
VERTEX
  5
905
  8
Layer_3
  10
168.60786
  20
362.84146
  0
VERTEX
  5
906
  8
Layer_3
  10
168.52167
  20
363.45572
  0
VERTEX
  5
907
  8
Layer_3
  10
168.50616
  20
363.5582
  0
VERTEX
  5
908
  8
Layer_3
  10
168.40494
  20
364.17154
  0
VERTEX
  5
909
  8
Layer_3
  10
168.38654
  20
364.27432
  0
VERTEX
  5
90a
  8
Layer_3
  10
168.27002
  20
364.88681
  0
VERTEX
  5
90b
  8
Layer_3
  10
168.24931
  20
364.98911
  0
VERTEX
  5
90c
  8
Layer_3
  10
168.11754
  20
365.60037
  0
VERTEX
  5
90d
  8
Layer_3
  10
168.09384
  20
365.70352
  0
VERTEX
  5
90e
  8
Layer_3
  10
167.94656
  20
366.31314
  0
VERTEX
  5
90f
  8
Layer_3
  10
167.92087
  20
366.41479
  0
VERTEX
  5
910
  8
Layer_3
  10
167.75812
  20
367.02289
  0
VERTEX
  5
911
  8
Layer_3
  10
167.72922
  20
367.12564
  0
VERTEX
  5
912
  8
Layer_3
  10
167.55075
  20
367.73145
  0
VERTEX
  5
913
  8
Layer_3
  10
167.52005
  20
367.83127
  0
VERTEX
  5
914
  8
Layer_3
  10
167.32611
  20
368.43503
  0
VERTEX
  5
915
  8
Layer_3
  10
167.29201
  20
368.5369
  0
VERTEX
  5
916
  8
Layer_3
  10
167.08217
  20
369.13791
  0
VERTEX
  5
917
  8
Layer_3
  10
167.04637
  20
369.23648
  0
VERTEX
  5
918
  8
Layer_3
  10
166.82085
  20
369.83502
  0
VERTEX
  5
919
  8
Layer_3
  10
166.78134
  20
369.93604
  0
VERTEX
  5
91a
  8
Layer_3
  10
166.5397
  20
370.53119
  0
VERTEX
  5
91b
  8
Layer_3
  10
166.4993
  20
370.62729
  0
VERTEX
  5
91c
  8
Layer_3
  10
166.242
  20
371.21933
  0
VERTEX
  5
91d
  8
Layer_3
  10
166.1976
  20
371.31802
  0
VERTEX
  5
91e
  8
Layer_3
  10
165.92398
  20
371.90652
  0
VERTEX
  5
91f
  8
Layer_3
  10
165.87758
  20
372.00293
  0
VERTEX
  5
920
  8
Layer_3
  10
165.58784
  20
372.5874
  0
VERTEX
  5
921
  8
Layer_3
  10
165.53955
  20
372.68222
  0
VERTEX
  5
922
  8
Layer_3
  10
165.24188
  20
373.24704
  0
VERTEX
  5
923
  8
Layer_3
  10
165.19078
  20
373.34073
  0
VERTEX
  5
924
  8
Layer_3
  10
164.87991
  20
373.89651
  0
VERTEX
  5
925
  8
Layer_3
  10
164.82721
  20
373.98843
  0
VERTEX
  5
926
  8
Layer_3
  10
164.50339
  20
374.53528
  0
VERTEX
  5
927
  8
Layer_3
  10
164.44839
  20
374.6257
  0
VERTEX
  5
928
  8
Layer_3
  10
164.1118
  20
375.16327
  0
VERTEX
  5
929
  8
Layer_3
  10
164.0545
  20
375.25217
  0
VERTEX
  5
92a
  8
Layer_3
  10
163.70535
  20
375.78036
  0
VERTEX
  5
92b
  8
Layer_3
  10
163.64655
  20
375.86697
  0
VERTEX
  5
92c
  8
Layer_3
  10
163.28525
  20
376.38559
  0
VERTEX
  5
92d
  8
Layer_3
  10
163.22314
  20
376.47238
  0
VERTEX
  5
92e
  8
Layer_3
  10
162.84952
  20
376.98117
  0
VERTEX
  5
92f
  8
Layer_3
  10
162.78722
  20
377.06396
  0
VERTEX
  5
930
  8
Layer_3
  10
162.40187
  20
377.56293
  0
VERTEX
  5
931
  8
Layer_3
  10
162.33678
  20
377.64493
  0
VERTEX
  5
932
  8
Layer_3
  10
161.93993
  20
378.13364
  0
VERTEX
  5
933
  8
Layer_3
  10
161.87273
  20
378.21432
  0
VERTEX
  5
934
  8
Layer_3
  10
161.46437
  20
378.69278
  0
VERTEX
  5
935
  8
Layer_3
  10
161.39467
  20
378.77228
  0
VERTEX
  5
936
  8
Layer_3
  10
160.97502
  20
379.24005
  0
VERTEX
  5
937
  8
Layer_3
  10
160.90411
  20
379.31723
  0
VERTEX
  5
938
  8
Layer_3
  10
160.47337
  20
379.77432
  0
VERTEX
  5
939
  8
Layer_3
  10
160.40178
  20
379.84836
  0
VERTEX
  5
93a
  8
Layer_3
  10
159.96059
  20
380.29459
  0
VERTEX
  5
93b
  8
Layer_3
  10
159.88509
  20
380.36905
  0
VERTEX
  5
93c
  8
Layer_3
  10
159.433
  20
380.80417
  0
VERTEX
  5
93d
  8
Layer_3
  10
159.3571
  20
380.87558
  0
VERTEX
  5
93e
  8
Layer_3
  10
158.89478
  20
381.29941
  0
VERTEX
  5
93f
  8
Layer_3
  10
158.81798
  20
381.36819
  0
VERTEX
  5
940
  8
Layer_3
  10
158.34561
  20
381.78073
  0
VERTEX
  5
941
  8
Layer_3
  10
158.26591
  20
381.84854
  0
VERTEX
  5
942
  8
Layer_3
  10
157.78371
  20
382.24942
  0
VERTEX
  5
943
  8
Layer_3
  10
157.70171
  20
382.31589
  0
VERTEX
  5
944
  8
Layer_3
  10
157.20967
  20
382.70474
  0
VERTEX
  5
945
  8
Layer_3
  10
157.12767
  20
382.76816
  0
VERTEX
  5
946
  8
Layer_3
  10
156.62624
  20
383.14511
  0
VERTEX
  5
947
  8
Layer_3
  10
156.54153
  20
383.207
  0
VERTEX
  5
948
  8
Layer_3
  10
156.03067
  20
383.57181
  0
VERTEX
  5
949
  8
Layer_3
  10
155.94487
  20
383.63162
  0
VERTEX
  5
94a
  8
Layer_3
  10
155.42523
  20
383.98392
  0
VERTEX
  5
94b
  8
Layer_3
  10
155.33842
  20
384.04132
  0
VERTEX
  5
94c
  8
Layer_3
  10
154.80978
  20
384.38123
  0
VERTEX
  5
94d
  8
Layer_3
  10
154.72008
  20
384.43735
  0
VERTEX
  5
94e
  8
Layer_3
  10
154.18286
  20
384.76431
  0
VERTEX
  5
94f
  8
Layer_3
  10
154.09296
  20
384.8176
  0
VERTEX
  5
950
  8
Layer_3
  10
153.54715
  20
385.13181
  0
VERTEX
  5
951
  8
Layer_3
  10
153.45595
  20
385.18289
  0
VERTEX
  5
952
  8
Layer_3
  10
152.90219
  20
385.48392
  0
VERTEX
  5
953
  8
Layer_3
  10
152.80869
  20
385.53323
  0
VERTEX
  5
954
  8
Layer_3
  10
152.24699
  20
385.82089
  0
VERTEX
  5
955
  8
Layer_3
  10
152.15329
  20
385.8674
  0
VERTEX
  5
956
  8
Layer_3
  10
151.58385
  20
386.14169
  0
VERTEX
  5
957
  8
Layer_3
  10
151.48805
  20
386.18637
  0
VERTEX
  5
958
  8
Layer_3
  10
150.91087
  20
386.44705
  0
VERTEX
  5
959
  8
Layer_3
  10
150.81377
  20
386.48953
  0
VERTEX
  5
95a
  8
Layer_3
  10
150.22948
  20
386.73611
  0
VERTEX
  5
95b
  8
Layer_3
  10
150.13158
  20
386.77612
  0
VERTEX
  5
95c
  8
Layer_3
  10
149.54018
  20
387.00873
  0
VERTEX
  5
95d
  8
Layer_3
  10
149.44098
  20
387.04623
  0
VERTEX
  5
95e
  8
Layer_3
  10
148.84267
  20
387.26462
  0
VERTEX
  5
95f
  8
Layer_3
  10
148.74347
  20
387.29962
  0
VERTEX
  5
960
  8
Layer_3
  10
148.13846
  20
387.50378
  0
VERTEX
  5
961
  8
Layer_3
  10
148.03616
  20
387.5369
  0
VERTEX
  5
962
  8
Layer_3
  10
147.42636
  20
387.7258
  0
VERTEX
  5
963
  8
Layer_3
  10
147.32364
  20
387.75607
  0
VERTEX
  5
964
  8
Layer_3
  10
146.71069
  20
387.92929
  0
VERTEX
  5
965
  8
Layer_3
  10
146.61029
  20
387.95651
  0
VERTEX
  5
966
  8
Layer_3
  10
145.99461
  20
388.11447
  0
VERTEX
  5
967
  8
Layer_3
  10
145.89107
  20
388.13956
  0
VERTEX
  5
968
  8
Layer_3
  10
145.2731
  20
388.28183
  0
VERTEX
  5
969
  8
Layer_3
  10
145.16975
  20
388.30423
  0
VERTEX
  5
96a
  8
Layer_3
  10
144.54927
  20
388.431
  0
VERTEX
  5
96b
  8
Layer_3
  10
144.44592
  20
388.45084
  0
VERTEX
  5
96c
  8
Layer_3
  10
143.82378
  20
388.56216
  0
VERTEX
  5
96d
  8
Layer_3
  10
143.71834
  20
388.57974
  0
VERTEX
  5
96e
  8
Layer_3
  10
143.09451
  20
388.67532
  0
VERTEX
  5
96f
  8
Layer_3
  10
142.99159
  20
388.68973
  0
VERTEX
  5
970
  8
Layer_3
  10
142.3665
  20
388.77014
  0
VERTEX
  5
971
  8
Layer_3
  10
142.26315
  20
388.78204
  0
VERTEX
  5
972
  8
Layer_3
  10
141.63683
  20
388.84714
  0
VERTEX
  5
973
  8
Layer_3
  10
141.53055
  20
388.85715
  0
VERTEX
  5
974
  8
Layer_3
  10
140.90359
  20
388.90652
  0
VERTEX
  5
975
  8
Layer_3
  10
140.80109
  20
388.91354
  0
VERTEX
  5
976
  8
Layer_3
  10
140.17349
  20
388.94785
  0
VERTEX
  5
977
  8
Layer_3
  10
140.06807
  20
388.95285
  0
VERTEX
  5
978
  8
Layer_3
  10
139.44048
  20
388.97174
  0
VERTEX
  5
979
  8
Layer_3
  10
139.33482
  20
388.97372
  0
VERTEX
  5
97a
  8
Layer_3
  10
138.70723
  20
388.97675
  0
VERTEX
  5
97b
  8
Layer_3
  10
138.60304
  20
388.97595
  0
VERTEX
  5
97c
  8
Layer_3
  10
137.97566
  20
388.96396
  0
VERTEX
  5
97d
  8
Layer_3
  10
137.87274
  20
388.96097
  0
VERTEX
  5
97e
  8
Layer_3
  10
137.2462
  20
388.93396
  0
VERTEX
  5
97f
  8
Layer_3
  10
137.14034
  20
388.92795
  0
VERTEX
  5
980
  8
Layer_3
  10
136.51463
  20
388.88547
  0
VERTEX
  5
981
  8
Layer_3
  10
136.4117
  20
388.87747
  0
VERTEX
  5
982
  8
Layer_3
  10
135.78725
  20
388.81998
  0
VERTEX
  5
983
  8
Layer_3
  10
135.68306
  20
388.80908
  0
VERTEX
  5
984
  8
Layer_3
  10
135.06006
  20
388.73639
  0
VERTEX
  5
985
  8
Layer_3
  10
134.95589
  20
388.72281
  0
VERTEX
  5
986
  8
Layer_3
  10
134.33478
  20
388.63467
  0
VERTEX
  5
987
  8
Layer_3
  10
134.23206
  20
388.61899
  0
VERTEX
  5
988
  8
Layer_3
  10
133.61304
  20
388.51584
  0
VERTEX
  5
989
  8
Layer_3
  10
133.50969
  20
388.49722
  0
VERTEX
  5
98a
  8
Layer_3
  10
132.89278
  20
388.37881
  0
VERTEX
  5
98b
  8
Layer_3
  10
132.79027
  20
388.35794
  0
VERTEX
  5
98c
  8
Layer_3
  10
132.17627
  20
388.22446
  0
VERTEX
  5
98d
  8
Layer_3
  10
132.0746
  20
388.20102
  0
VERTEX
  5
98e
  8
Layer_3
  10
131.46333
  20
388.05246
  0
VERTEX
  5
98f
  8
Layer_3
  10
131.36165
  20
388.0264
  0
VERTEX
  5
990
  8
Layer_3
  10
130.75372
  20
387.86276
  0
VERTEX
  5
991
  8
Layer_3
  10
130.65289
  20
387.83435
  0
VERTEX
  5
992
  8
Layer_3
  10
130.04831
  20
387.6557
  0
VERTEX
  5
993
  8
Layer_3
  10
129.94727
  20
387.62448
  0
VERTEX
  5
994
  8
Layer_3
  10
129.34666
  20
387.43082
  0
VERTEX
  5
995
  8
Layer_3
  10
129.24687
  20
387.39734
  0
VERTEX
  5
996
  8
Layer_3
  10
128.65024
  20
387.1886
  0
VERTEX
  5
997
  8
Layer_3
  10
128.55214
  20
387.1528
  0
VERTEX
  5
998
  8
Layer_3
  10
127.95969
  20
386.92917
  0
VERTEX
  5
999
  8
Layer_3
  10
127.86049
  20
386.89029
  0
VERTEX
  5
99a
  8
Layer_3
  10
127.27286
  20
386.65158
  0
VERTEX
  5
99b
  8
Layer_3
  10
127.17596
  20
386.61099
  0
VERTEX
  5
99c
  8
Layer_3
  10
126.59314
  20
386.35745
  0
VERTEX
  5
99d
  8
Layer_3
  10
126.49694
  20
386.31412
  0
VERTEX
  5
99e
  8
Layer_3
  10
125.91935
  20
386.04568
  0
VERTEX
  5
99f
  8
Layer_3
  10
125.82265
  20
385.9993
  0
VERTEX
  5
9a0
  8
Layer_3
  10
125.25049
  20
385.71585
  0
VERTEX
  5
9a1
  8
Layer_3
  10
125.15449
  20
385.66684
  0
VERTEX
  5
9a2
  8
Layer_3
  10
124.57751
  20
385.36264
  0
VERTEX
  5
9a3
  8
Layer_3
  10
124.48421
  20
385.31186
  0
VERTEX
  5
9a4
  8
Layer_3
  10
123.91792
  20
384.99509
  0
VERTEX
  5
9a5
  8
Layer_3
  10
123.82542
  20
384.94199
  0
VERTEX
  5
9a6
  8
Layer_3
  10
123.27
  20
384.61288
  0
VERTEX
  5
9a7
  8
Layer_3
  10
123.1784
  20
384.5571
  0
VERTEX
  5
9a8
  8
Layer_3
  10
122.63407
  20
384.21591
  0
VERTEX
  5
9a9
  8
Layer_3
  10
122.54597
  20
384.15921
  0
VERTEX
  5
9aa
  8
Layer_3
  10
122.01273
  20
383.80646
  0
VERTEX
  5
9ab
  8
Layer_3
  10
121.92423
  20
383.74625
  0
VERTEX
  5
9ac
  8
Layer_3
  10
121.40207
  20
383.38187
  0
VERTEX
  5
9ad
  8
Layer_3
  10
121.31507
  20
383.31949
  0
VERTEX
  5
9ae
  8
Layer_3
  10
120.80442
  20
382.94376
  0
VERTEX
  5
9af
  8
Layer_3
  10
120.72052
  20
382.88046
  0
VERTEX
  5
9b0
  8
Layer_3
  10
120.22096
  20
382.49362
  0
VERTEX
  5
9b1
  8
Layer_3
  10
120.13836
  20
382.42822
  0
VERTEX
  5
9b2
  8
Layer_3
  10
119.65031
  20
382.03067
  0
VERTEX
  5
9b3
  8
Layer_3
  10
119.56911
  20
381.9628
  0
VERTEX
  5
9b4
  8
Layer_3
  10
119.09277
  20
381.55484
  0
VERTEX
  5
9b5
  8
Layer_3
  10
119.01407
  20
381.48581
  0
VERTEX
  5
9b6
  8
Layer_3
  10
118.54922
  20
381.0676
  0
VERTEX
  5
9b7
  8
Layer_3
  10
118.47182
  20
380.99649
  0
VERTEX
  5
9b8
  8
Layer_3
  10
118.01871
  20
380.56827
  0
VERTEX
  5
9b9
  8
Layer_3
  10
117.94421
  20
380.49606
  0
VERTEX
  5
9ba
  8
Layer_3
  10
117.5028
  20
380.05826
  0
VERTEX
  5
9bb
  8
Layer_3
  10
117.429
  20
379.98318
  0
VERTEX
  5
9bc
  8
Layer_3
  10
116.99953
  20
379.53574
  0
VERTEX
  5
9bd
  8
Layer_3
  10
116.92944
  20
379.46072
  0
VERTEX
  5
9be
  8
Layer_3
  10
116.51189
  20
379.0043
  0
VERTEX
  5
9bf
  8
Layer_3
  10
116.44179
  20
378.92581
  0
VERTEX
  5
9c0
  8
Layer_3
  10
116.03637
  20
378.46017
  0
VERTEX
  5
9c1
  8
Layer_3
  10
115.97047
  20
378.38254
  0
VERTEX
  5
9c2
  8
Layer_3
  10
115.57697
  20
377.90833
  0
VERTEX
  5
9c3
  8
Layer_3
  10
115.51128
  20
377.82712
  0
VERTEX
  5
9c4
  8
Layer_3
  10
115.13033
  20
377.34451
  0
VERTEX
  5
9c5
  8
Layer_3
  10
115.06822
  20
377.26392
  0
VERTEX
  5
9c6
  8
Layer_3
  10
114.69941
  20
376.77319
  0
VERTEX
  5
9c7
  8
Layer_3
  10
114.63891
  20
376.69058
  0
VERTEX
  5
9c8
  8
Layer_3
  10
114.28244
  20
376.1918
  0
VERTEX
  5
9c9
  8
Layer_3
  10
114.22344
  20
376.10733
  0
VERTEX
  5
9ca
  8
Layer_3
  10
113.87952
  20
375.60086
  0
VERTEX
  5
9cb
  8
Layer_3
  10
113.82282
  20
375.51505
  0
VERTEX
  5
9cc
  8
Layer_3
  10
113.49168
  20
375.00125
  0
VERTEX
  5
9cd
  8
Layer_3
  10
113.43848
  20
374.91675
  0
VERTEX
  5
9ce
  8
Layer_3
  10
113.11967
  20
374.39587
  0
VERTEX
  5
9cf
  8
Layer_3
  10
113.06657
  20
374.30667
  0
VERTEX
  5
9d0
  8
Layer_3
  10
112.76072
  20
373.77866
  0
VERTEX
  5
9d1
  8
Layer_3
  10
112.71172
  20
373.69186
  0
VERTEX
  5
9d2
  8
Layer_3
  10
112.41862
  20
373.15756
  0
VERTEX
  5
9d3
  8
Layer_3
  10
112.37032
  20
373.06696
  0
VERTEX
  5
9d4
  8
Layer_3
  10
112.09021
  20
372.52594
  0
VERTEX
  5
9d5
  8
Layer_3
  10
112.04521
  20
372.43665
  0
VERTEX
  5
9d6
  8
Layer_3
  10
111.77806
  20
371.88983
  0
VERTEX
  5
9d7
  8
Layer_3
  10
111.73496
  20
371.79852
  0
VERTEX
  5
9d8
  8
Layer_3
  10
111.48078
  20
371.24561
  0
VERTEX
  5
9d9
  8
Layer_3
  10
111.43938
  20
371.15271
  0
VERTEX
  5
9da
  8
Layer_3
  10
111.19859
  20
370.59436
  0
VERTEX
  5
9db
  8
Layer_3
  10
111.1601
  20
370.50217
  0
VERTEX
  5
9dc
  8
Layer_3
  10
110.93249
  20
369.93857
  0
VERTEX
  5
9dd
  8
Layer_3
  10
110.89569
  20
369.84427
  0
VERTEX
  5
9de
  8
Layer_3
  10
110.68147
  20
369.27542
  0
VERTEX
  5
9df
  8
Layer_3
  10
110.64717
  20
369.18103
  0
VERTEX
  5
9e0
  8
Layer_3
  10
110.44634
  20
368.60742
  0
VERTEX
  5
9e1
  8
Layer_3
  10
110.41414
  20
368.51163
  0
VERTEX
  5
9e2
  8
Layer_3
  10
110.2269
  20
367.93344
  0
VERTEX
  5
9e3
  8
Layer_3
  10
110.1972
  20
367.83762
  0
VERTEX
  5
9e4
  8
Layer_3
  10
110.02356
  20
367.25522
  0
VERTEX
  5
9e5
  8
Layer_3
  10
109.99596
  20
367.15872
  0
VERTEX
  5
9e6
  8
Layer_3
  10
109.83593
  20
366.57217
  0
VERTEX
  5
9e7
  8
Layer_3
  10
109.81023
  20
366.4733
  0
VERTEX
  5
9e8
  8
Layer_3
  10
109.66422
  20
365.8829
  0
VERTEX
  5
9e9
  8
Layer_3
  10
109.64162
  20
365.7869
  0
VERTEX
  5
9ea
  8
Layer_3
  10
109.50919
  20
365.19321
  0
VERTEX
  5
9eb
  8
Layer_3
  10
109.48809
  20
365.09256
  0
VERTEX
  5
9ec
  8
Layer_3
  10
109.36989
  20
364.49551
  0
VERTEX
  5
9ed
  8
Layer_3
  10
109.35168
  20
364.39761
  0
VERTEX
  5
9ee
  8
Layer_3
  10
109.24731
  20
363.79745
  0
VERTEX
  5
9ef
  8
Layer_3
  10
109.2308
  20
363.69553
  0
VERTEX
  5
9f0
  8
Layer_3
  10
109.14081
  20
363.09265
  0
VERTEX
  5
9f1
  8
Layer_3
  10
109.1272
  20
362.99384
  0
VERTEX
  5
9f2
  8
Layer_3
  10
109.05131
  20
362.38867
  0
VERTEX
  5
9f3
  8
Layer_3
  10
109.03981
  20
362.28656
  0
VERTEX
  5
9f4
  8
Layer_3
  10
108.97831
  20
361.67883
  0
VERTEX
  5
9f5
  8
Layer_3
  10
108.96931
  20
361.57883
  0
VERTEX
  5
9f6
  8
Layer_3
  10
108.922
  20
360.96945
  0
VERTEX
  5
9f7
  8
Layer_3
  10
108.915
  20
360.86649
  0
SEQEND
  0
POLYLINE
  5
9f9
  8
Layer_3
  62
52
  66
1
  10
0
  20
0
  30
0
  0
VERTEX
  5
9f9
  8
Layer_3
  10
108.85522
  20
358.82352
  42
0.0019877714
  0
VERTEX
  5
9fa
  8
Layer_3
  10
108.86713
  20
358.1066
  0
VERTEX
  5
9fb
  8
Layer_3
  10
108.87012
  20
358.00345
  0
VERTEX
  5
9fc
  8
Layer_3
  10
108.89632
  20
357.38773
  0
VERTEX
  5
9fd
  8
Layer_3
  10
108.90232
  20
357.28506
  0
VERTEX
  5
9fe
  8
Layer_3
  10
108.94332
  20
356.66916
  0
VERTEX
  5
9ff
  8
Layer_3
  10
108.95132
  20
356.56558
  0
VERTEX
  5
a00
  8
Layer_3
  10
109.00742
  20
355.94931
  0
VERTEX
  5
a01
  8
Layer_3
  10
109.01833
  20
355.84451
  0
VERTEX
  5
a02
  8
Layer_3
  10
109.08962
  20
355.22842
  0
VERTEX
  5
a03
  8
Layer_3
  10
109.10262
  20
355.12735
  0
VERTEX
  5
a04
  8
Layer_3
  10
109.18882
  20
354.51169
  0
VERTEX
  5
a05
  8
Layer_3
  10
109.20472
  20
354.40689
  0
VERTEX
  5
a06
  8
Layer_3
  10
109.30639
  20
353.79184
  0
VERTEX
  5
a07
  8
Layer_3
  10
109.32499
  20
353.6879
  0
VERTEX
  5
a08
  8
Layer_3
  10
109.44213
  20
353.0737
  0
VERTEX
  5
a09
  8
Layer_3
  10
109.46283
  20
352.97202
  0
VERTEX
  5
a0a
  8
Layer_3
  10
109.59526
  20
352.35886
  0
VERTEX
  5
a0b
  8
Layer_3
  10
109.61846
  20
352.25656
  0
VERTEX
  5
a0c
  8
Layer_3
  10
109.76637
  20
351.64468
  0
VERTEX
  5
a0d
  8
Layer_3
  10
109.79276
  20
351.54153
  0
VERTEX
  5
a0e
  8
Layer_3
  10
109.95635
  20
350.93149
  0
VERTEX
  5
a0f
  8
Layer_3
  10
109.98505
  20
350.82986
  0
VERTEX
  5
a10
  8
Layer_3
  10
110.16434
  20
350.22171
  0
VERTEX
  5
a11
  8
Layer_3
  10
110.19575
  20
350.11978
  0
VERTEX
  5
a12
  8
Layer_3
  10
110.39093
  20
349.51376
  0
VERTEX
  5
a13
  8
Layer_3
  10
110.42423
  20
349.4144
  0
VERTEX
  5
a14
  8
Layer_3
  10
110.6351
  20
348.81064
  0
VERTEX
  5
a15
  8
Layer_3
  10
110.6719
  20
348.70963
  0
VERTEX
  5
a16
  8
Layer_3
  10
110.89889
  20
348.10855
  0
VERTEX
  5
a17
  8
Layer_3
  10
110.93758
  20
348.00986
  0
VERTEX
  5
a18
  8
Layer_3
  10
111.18047
  20
347.41196
  0
VERTEX
  5
a19
  8
Layer_3
  10
111.22186
  20
347.3132
  0
VERTEX
  5
a1a
  8
Layer_3
  10
111.48106
  20
346.71823
  0
VERTEX
  5
a1b
  8
Layer_3
  10
111.52477
  20
346.62137
  0
VERTEX
  5
a1c
  8
Layer_3
  10
111.80006
  20
346.03
  0
VERTEX
  5
a1d
  8
Layer_3
  10
111.86346
  20
345.89944
  0
VERTEX
  5
a1e
  8
Layer_3
  10
112.33101
  20
344.97794
  0
VERTEX
  5
a1f
  8
Layer_3
  10
112.41171
  20
344.82645
  0
VERTEX
  5
a20
  8
Layer_3
  10
112.91441
  20
343.92691
  0
VERTEX
  5
a21
  8
Layer_3
  10
113.00082
  20
343.77945
  0
VERTEX
  5
a22
  8
Layer_3
  10
113.53761
  20
342.90292
  0
VERTEX
  5
a23
  8
Layer_3
  10
113.62921
  20
342.7598
  0
VERTEX
  5
a24
  8
Layer_3
  10
114.19927
  20
341.90689
  0
VERTEX
  5
a25
  8
Layer_3
  10
114.29717
  20
341.76675
  0
VERTEX
  5
a26
  8
Layer_3
  10
114.89988
  20
340.93851
  0
VERTEX
  5
a27
  8
Layer_3
  10
115.00217
  20
340.80362
  0
VERTEX
  5
a28
  8
Layer_3
  10
115.63647
  20
340.0007
  0
VERTEX
  5
a29
  8
Layer_3
  10
115.74503
  20
339.86868
  0
VERTEX
  5
a2a
  8
Layer_3
  10
116.41029
  20
339.09238
  0
VERTEX
  5
a2b
  8
Layer_3
  10
116.52261
  20
338.96646
  0
VERTEX
  5
a2c
  8
Layer_3
  10
117.21758
  20
338.21732
  0
VERTEX
  5
a2d
  8
Layer_3
  10
117.33598
  20
338.09451
  0
VERTEX
  5
a2e
  8
Layer_3
  10
118.06042
  20
337.37338
  0
VERTEX
  5
a2f
  8
Layer_3
  10
118.18282
  20
337.25644
  0
VERTEX
  5
a30
  8
Layer_3
  10
118.9353
  20
336.56442
  0
VERTEX
  5
a31
  8
Layer_3
  10
119.06248
  20
336.45187
  0
VERTEX
  5
a32
  8
Layer_3
  10
119.84238
  20
335.78976
  0
VERTEX
  5
a33
  8
Layer_3
  10
119.97459
  20
335.68179
  0
VERTEX
  5
a34
  8
Layer_3
  10
120.78126
  20
335.05045
  0
VERTEX
  5
a35
  8
Layer_3
  10
120.91745
  20
334.94839
  0
VERTEX
  5
a36
  8
Layer_3
  10
121.74985
  20
334.3486
  0
VERTEX
  5
a37
  8
Layer_3
  10
121.88959
  20
334.25217
  0
VERTEX
  5
a38
  8
Layer_3
  10
122.61278
  20
333.77353
  0
VERTEX
  5
a39
  8
Layer_3
  10
122.61278
  20
330.25565
  0
VERTEX
  5
a3a
  8
Layer_3
  10
122.61578
  20
330.0864
  0
VERTEX
  5
a3b
  8
Layer_3
  10
122.62578
  20
329.91739
  0
VERTEX
  5
a3c
  8
Layer_3
  10
122.64248
  20
329.74875
  0
VERTEX
  5
a3d
  8
Layer_3
  10
122.64269
  20
329.74716
  0
VERTEX
  5
a3e
  8
Layer_3
  10
122.61929
  20
329.60843
  0
VERTEX
  5
a3f
  8
Layer_3
  10
122.59769
  20
329.44046
  0
VERTEX
  5
a40
  8
Layer_3
  10
122.5826
  20
329.27182
  0
VERTEX
  5
a41
  8
Layer_3
  10
122.57459
  20
329.10263
  0
VERTEX
  5
a42
  8
Layer_3
  10
122.57259
  20
328.97775
  0
VERTEX
  5
a43
  8
Layer_3
  10
122.57259
  20
324.69333
  0
VERTEX
  5
a44
  8
Layer_3
  10
122.57559
  20
324.52408
  0
VERTEX
  5
a45
  8
Layer_3
  10
122.58559
  20
324.35507
  0
VERTEX
  5
a46
  8
Layer_3
  10
122.60229
  20
324.18643
  0
VERTEX
  5
a47
  8
Layer_3
  10
122.6205
  20
324.05551
  0
VERTEX
  5
a48
  8
Layer_3
  10
122.6185
  20
324.04611
  0
VERTEX
  5
a49
  8
Layer_3
  10
122.5969
  20
323.87808
  0
VERTEX
  5
a4a
  8
Layer_3
  10
122.5818
  20
323.7095
  0
VERTEX
  5
a4b
  8
Layer_3
  10
122.5738
  20
323.54025
  0
VERTEX
  5
a4c
  8
Layer_3
  10
122.5718
  20
323.41537
  0
VERTEX
  5
a4d
  8
Layer_3
  10
122.5718
  20
319.13095
  0
VERTEX
  5
a4e
  8
Layer_3
  10
122.5748
  20
318.96176
  0
VERTEX
  5
a4f
  8
Layer_3
  10
122.5848
  20
318.79269
  0
VERTEX
  5
a50
  8
Layer_3
  10
122.6015
  20
318.62411
  0
VERTEX
  5
a51
  8
Layer_3
  10
122.6163
  20
318.517
  0
VERTEX
  5
a52
  8
Layer_3
  10
122.61031
  20
318.48373
  0
VERTEX
  5
a53
  8
Layer_3
  10
122.58881
  20
318.31577
  0
VERTEX
  5
a54
  8
Layer_3
  10
122.57371
  20
318.14713
  0
VERTEX
  5
a55
  8
Layer_3
  10
122.5657
  20
317.97787
  0
VERTEX
  5
a56
  8
Layer_3
  10
122.56371
  20
317.853
  0
VERTEX
  5
a57
  8
Layer_3
  10
122.56371
  20
313.56863
  0
VERTEX
  5
a58
  8
Layer_3
  10
122.5667
  20
313.39938
  0
VERTEX
  5
a59
  8
Layer_3
  10
122.57671
  20
313.23038
  0
VERTEX
  5
a5a
  8
Layer_3
  10
122.59341
  20
313.06174
  0
VERTEX
  5
a5b
  8
Layer_3
  10
122.61661
  20
312.89395
  0
VERTEX
  5
a5c
  8
Layer_3
  10
122.64671
  20
312.72745
  0
VERTEX
  5
a5d
  8
Layer_3
  10
122.68311
  20
312.56198
  0
VERTEX
  5
a5e
  8
Layer_3
  10
122.7262
  20
312.39816
  0
VERTEX
  5
a5f
  8
Layer_3
  10
122.7758
  20
312.23624
  0
VERTEX
  5
a60
  8
Layer_3
  10
122.83141
  20
312.07639
  0
VERTEX
  5
a61
  8
Layer_3
  10
122.89351
  20
311.91891
  0
VERTEX
  5
a62
  8
Layer_3
  10
122.96191
  20
311.76389
  0
VERTEX
  5
a63
  8
Layer_3
  10
123.03621
  20
311.61179
  0
VERTEX
  5
a64
  8
Layer_3
  10
123.11651
  20
311.46262
  0
VERTEX
  5
a65
  8
Layer_3
  10
123.20271
  20
311.3168
  0
VERTEX
  5
a66
  8
Layer_3
  10
123.2945
  20
311.17459
  0
VERTEX
  5
a67
  8
Layer_3
  10
123.3918
  20
311.0361
  0
VERTEX
  5
a68
  8
Layer_3
  10
123.49473
  20
310.90134
  0
VERTEX
  5
a69
  8
Layer_3
  10
123.60267
  20
310.77103
  0
VERTEX
  5
a6a
  8
Layer_3
  10
123.71585
  20
310.64487
  0
VERTEX
  5
a6b
  8
Layer_3
  10
123.83384
  20
310.52353
  0
VERTEX
  5
a6c
  8
Layer_3
  10
123.95643
  20
310.40683
  0
VERTEX
  5
a6d
  8
Layer_3
  10
124.08362
  20
310.29489
  0
VERTEX
  5
a6e
  8
Layer_3
  10
124.21519
  20
310.1882
  0
VERTEX
  5
a6f
  8
Layer_3
  10
124.35076
  20
310.08694
  0
VERTEX
  5
a70
  8
Layer_3
  10
124.4905
  20
309.99094
  0
VERTEX
  5
a71
  8
Layer_3
  10
124.63359
  20
309.90054
  0
VERTEX
  5
a72
  8
Layer_3
  10
124.78024
  20
309.81601
  0
VERTEX
  5
a73
  8
Layer_3
  10
124.93023
  20
309.73715
  0
VERTEX
  5
a74
  8
Layer_3
  10
125.08314
  20
309.6644
  0
VERTEX
  5
a75
  8
Layer_3
  10
125.12644
  20
309.64572
  0
VERTEX
  5
a76
  8
Layer_3
  10
130.51349
  20
305.79794
  0
VERTEX
  5
a77
  8
Layer_3
  10
130.65323
  20
305.70218
  0
VERTEX
  5
a78
  8
Layer_3
  10
130.79675
  20
305.61221
  0
VERTEX
  5
a79
  8
Layer_3
  10
130.9436
  20
305.52768
  0
VERTEX
  5
a7a
  8
Layer_3
  10
131.0936
  20
305.44925
  0
VERTEX
  5
a7b
  8
Layer_3
  10
131.24652
  20
305.37686
  0
VERTEX
  5
a7c
  8
Layer_3
  10
131.40234
  20
305.31033
  0
VERTEX
  5
a7d
  8
Layer_3
  10
131.56073
  20
305.25027
  0
VERTEX
  5
a7e
  8
Layer_3
  10
131.72119
  20
305.19632
  0
VERTEX
  5
a7f
  8
Layer_3
  10
131.88373
  20
305.14883
  0
VERTEX
  5
a80
  8
Layer_3
  10
132.04816
  20
305.10782
  0
VERTEX
  5
a81
  8
Layer_3
  10
132.21387
  20
305.07333
  0
VERTEX
  5
a82
  8
Layer_3
  10
132.38101
  20
305.0455
  0
VERTEX
  5
a83
  8
Layer_3
  10
132.54898
  20
305.02414
  0
VERTEX
  5
a84
  8
Layer_3
  10
132.71759
  20
305.00949
  0
VERTEX
  5
a85
  8
Layer_3
  10
132.88684
  20
305.00159
  0
VERTEX
  5
a86
  8
Layer_3
  10
133.00375
  20
305
  0
VERTEX
  5
a87
  8
Layer_3
  10
145
  20
305
  0
VERTEX
  5
a88
  8
Layer_3
  10
145.16925
  20
305.00339
  0
VERTEX
  5
a89
  8
Layer_3
  10
145.33829
  20
305.0134
  0
VERTEX
  5
a8a
  8
Layer_3
  10
145.5069
  20
305.03012
  0
VERTEX
  5
a8b
  8
Layer_3
  10
145.67468
  20
305.05338
  0
VERTEX
  5
a8c
  8
Layer_3
  10
145.84119
  20
305.08347
  0
VERTEX
  5
a8d
  8
Layer_3
  10
146.00665
  20
305.11984
  0
VERTEX
  5
a8e
  8
Layer_3
  10
146.17047
  20
305.16299
  0
VERTEX
  5
a8f
  8
Layer_3
  10
146.3324
  20
305.21255
  0
VERTEX
  5
a90
  8
Layer_3
  10
146.49222
  20
305.26822
  0
VERTEX
  5
a91
  8
Layer_3
  10
146.64975
  20
305.33035
  0
VERTEX
  5
a92
  8
Layer_3
  10
146.80475
  20
305.39871
  0
VERTEX
  5
a93
  8
Layer_3
  10
146.95685
  20
305.47299
  0
VERTEX
  5
a94
  8
Layer_3
  10
147.10599
  20
305.55331
  0
VERTEX
  5
a95
  8
Layer_3
  10
147.2518
  20
305.6395
  0
VERTEX
  5
a96
  8
Layer_3
  10
147.39407
  20
305.73135
  0
VERTEX
  5
a97
  8
Layer_3
  10
147.49026
  20
305.79807
  0
VERTEX
  5
a98
  8
Layer_3
  10
153.48837
  20
310.08249
  0
VERTEX
  5
a99
  8
Layer_3
  10
153.62415
  20
310.1835
  0
VERTEX
  5
a9a
  8
Layer_3
  10
153.75592
  20
310.29001
  0
VERTEX
  5
a9b
  8
Layer_3
  10
153.88333
  20
310.40146
  0
VERTEX
  5
a9c
  8
Layer_3
  10
154.00613
  20
310.51804
  0
VERTEX
  5
a9d
  8
Layer_3
  10
154.12433
  20
310.63937
  0
VERTEX
  5
a9e
  8
Layer_3
  10
154.2377
  20
310.76511
  0
VERTEX
  5
a9f
  8
Layer_3
  10
154.34607
  20
310.89542
  0
VERTEX
  5
aa0
  8
Layer_3
  10
154.44901
  20
311.02969
  0
VERTEX
  5
aa1
  8
Layer_3
  10
154.54672
  20
311.168
  0
VERTEX
  5
aa2
  8
Layer_3
  10
154.63882
  20
311.31027
  0
VERTEX
  5
aa3
  8
Layer_3
  10
154.72522
  20
311.45584
  0
VERTEX
  5
aa4
  8
Layer_3
  10
154.80573
  20
311.60483
  0
VERTEX
  5
aa5
  8
Layer_3
  10
154.88043
  20
311.75687
  0
VERTEX
  5
aa6
  8
Layer_3
  10
154.94904
  20
311.91171
  0
VERTEX
  5
aa7
  8
Layer_3
  10
155.01141
  20
312.069
  0
VERTEX
  5
aa8
  8
Layer_3
  10
155.06772
  20
312.22885
  0
VERTEX
  5
aa9
  8
Layer_3
  10
155.11752
  20
312.39078
  0
VERTEX
  5
aaa
  8
Layer_3
  10
155.16083
  20
312.55435
  0
VERTEX
  5
aab
  8
Layer_3
  10
155.19763
  20
312.71964
  0
VERTEX
  5
aac
  8
Layer_3
  10
155.22794
  20
312.88632
  0
VERTEX
  5
aad
  8
Layer_3
  10
155.25156
  20
313.05392
  0
VERTEX
  5
aae
  8
Layer_3
  10
155.26855
  20
313.2225
  0
VERTEX
  5
aaf
  8
Layer_3
  10
155.27875
  20
313.39157
  0
VERTEX
  5
ab0
  8
Layer_3
  10
155.28275
  20
313.56082
  0
VERTEX
  5
ab1
  8
Layer_3
  10
155.27972
  20
313.73026
  0
VERTEX
  5
ab2
  8
Layer_3
  10
155.26974
  20
313.89926
  0
VERTEX
  5
ab3
  8
Layer_3
  10
155.25345
  20
314.06766
  0
VERTEX
  5
ab4
  8
Layer_3
  10
155.23026
  20
314.23544
  0
VERTEX
  5
ab5
  8
Layer_3
  10
155.20074
  20
314.40219
  0
VERTEX
  5
ab6
  8
Layer_3
  10
155.16455
  20
314.56766
  0
VERTEX
  5
ab7
  8
Layer_3
  10
155.12436
  20
314.72104
  0
VERTEX
  5
ab8
  8
Layer_3
  10
155.12436
  20
317.85312
  0
VERTEX
  5
ab9
  8
Layer_3
  10
155.12134
  20
318.02237
  0
VERTEX
  5
aba
  8
Layer_3
  10
155.11136
  20
318.19138
  0
VERTEX
  5
abb
  8
Layer_3
  10
155.09467
  20
318.36002
  0
VERTEX
  5
abc
  8
Layer_3
  10
155.07986
  20
318.46713
  0
VERTEX
  5
abd
  8
Layer_3
  10
155.08585
  20
318.50037
  0
VERTEX
  5
abe
  8
Layer_3
  10
155.10736
  20
318.66833
  0
VERTEX
  5
abf
  8
Layer_3
  10
155.12247
  20
318.83698
  0
VERTEX
  5
ac0
  8
Layer_3
  10
155.13046
  20
319.00616
  0
VERTEX
  5
ac1
  8
Layer_3
  10
155.13245
  20
319.13104
  0
VERTEX
  5
ac2
  8
Layer_3
  10
155.13245
  20
323.4155
  0
VERTEX
  5
ac3
  8
Layer_3
  10
155.12946
  20
323.58469
  0
VERTEX
  5
ac4
  8
Layer_3
  10
155.11945
  20
323.75375
  0
VERTEX
  5
ac5
  8
Layer_3
  10
155.10275
  20
323.92233
  0
VERTEX
  5
ac6
  8
Layer_3
  10
155.08456
  20
324.05331
  0
VERTEX
  5
ac7
  8
Layer_3
  10
155.08655
  20
324.06271
  0
VERTEX
  5
ac8
  8
Layer_3
  10
155.10806
  20
324.23074
  0
VERTEX
  5
ac9
  8
Layer_3
  10
155.12317
  20
324.39932
  0
VERTEX
  5
aca
  8
Layer_3
  10
155.13116
  20
324.56857
  0
VERTEX
  5
acb
  8
Layer_3
  10
155.13315
  20
324.69345
  0
VERTEX
  5
acc
  8
Layer_3
  10
155.13315
  20
328.97784
  0
VERTEX
  5
acd
  8
Layer_3
  10
155.13016
  20
329.14703
  0
VERTEX
  5
ace
  8
Layer_3
  10
155.12015
  20
329.3161
  0
VERTEX
  5
acf
  8
Layer_3
  10
155.10345
  20
329.48468
  0
VERTEX
  5
ad0
  8
Layer_3
  10
155.10324
  20
329.48639
  0
VERTEX
  5
ad1
  8
Layer_3
  10
155.12665
  20
329.62506
  0
VERTEX
  5
ad2
  8
Layer_3
  10
155.14816
  20
329.79303
  0
VERTEX
  5
ad3
  8
Layer_3
  10
155.16327
  20
329.96167
  0
VERTEX
  5
ad4
  8
Layer_3
  10
155.17126
  20
330.13092
  0
VERTEX
  5
ad5
  8
Layer_3
  10
155.17325
  20
330.2558
  0
VERTEX
  5
ad6
  8
Layer_3
  10
155.17325
  20
333.81427
  0
VERTEX
  5
ad7
  8
Layer_3
  10
155.6814
  20
334.15002
  0
VERTEX
  5
ad8
  8
Layer_3
  10
155.76901
  20
334.20941
  0
VERTEX
  5
ad9
  8
Layer_3
  10
156.29367
  20
334.57513
  0
VERTEX
  5
ada
  8
Layer_3
  10
156.38049
  20
334.63727
  0
VERTEX
  5
adb
  8
Layer_3
  10
156.89365
  20
335.01422
  0
VERTEX
  5
adc
  8
Layer_3
  10
156.97836
  20
335.078
  0
VERTEX
  5
add
  8
Layer_3
  10
157.4798
  20
335.46588
  0
VERTEX
  5
ade
  8
Layer_3
  10
157.5629
  20
335.53198
  0
VERTEX
  5
adf
  8
Layer_3
  10
158.05283
  20
335.93073
  0
VERTEX
  5
ae0
  8
Layer_3
  10
158.13315
  20
335.99762
  0
VERTEX
  5
ae1
  8
Layer_3
  10
158.61157
  20
336.40686
  0
VERTEX
  5
ae2
  8
Layer_3
  10
158.69125
  20
336.47675
  0
VERTEX
  5
ae3
  8
Layer_3
  10
159.15756
  20
336.89594
  0
VERTEX
  5
ae4
  8
Layer_3
  10
159.23477
  20
336.9671
  0
VERTEX
  5
ae5
  8
Layer_3
  10
159.68954
  20
337.39655
  0
VERTEX
  5
ae6
  8
Layer_3
  10
159.76465
  20
337.46918
  0
VERTEX
  5
ae7
  8
Layer_3
  10
160.20731
  20
337.90802
  0
VERTEX
  5
ae8
  8
Layer_3
  10
160.28159
  20
337.98358
  0
VERTEX
  5
ae9
  8
Layer_3
  10
160.71213
  20
338.43207
  0
VERTEX
  5
aea
  8
Layer_3
  10
160.78281
  20
338.50763
  0
VERTEX
  5
aeb
  8
Layer_3
  10
161.20142
  20
338.96533
  0
VERTEX
  5
aec
  8
Layer_3
  10
161.27002
  20
339.04211
  0
VERTEX
  5
aed
  8
Layer_3
  10
161.67648
  20
339.50861
  0
VERTEX
  5
aee
  8
Layer_3
  10
161.74448
  20
339.58856
  0
VERTEX
  5
aef
  8
Layer_3
  10
162.13843
  20
340.0636
  0
VERTEX
  5
af0
  8
Layer_3
  10
162.20303
  20
340.14374
  0
VERTEX
  5
af1
  8
Layer_3
  10
162.58481
  20
340.62738
  0
VERTEX
  5
af2
  8
Layer_3
  10
162.64761
  20
340.7088
  0
VERTEX
  5
af3
  8
Layer_3
  10
163.01706
  20
341.20062
  0
VERTEX
  5
af4
  8
Layer_3
  10
163.07837
  20
341.2843
  0
VERTEX
  5
af5
  8
Layer_3
  10
163.43506
  20
341.78387
  0
VERTEX
  5
af6
  8
Layer_3
  10
163.49304
  20
341.86713
  0
VERTEX
  5
af7
  8
Layer_3
  10
163.83737
  20
342.37445
  0
VERTEX
  5
af8
  8
Layer_3
  10
163.89407
  20
342.46021
  0
VERTEX
  5
af9
  8
Layer_3
  10
164.22565
  20
342.97479
  0
VERTEX
  5
afa
  8
Layer_3
  10
164.27954
  20
343.06061
  0
VERTEX
  5
afb
  8
Layer_3
  10
164.59839
  20
343.58209
  0
VERTEX
  5
afc
  8
Layer_3
  10
164.65131
  20
343.6712
  0
VERTEX
  5
afd
  8
Layer_3
  10
164.95715
  20
344.19989
  0
VERTEX
  5
afe
  8
Layer_3
  10
165.00635
  20
344.28729
  0
VERTEX
  5
aff
  8
Layer_3
  10
165.29944
  20
344.82245
  0
VERTEX
  5
b00
  8
Layer_3
  10
165.34714
  20
344.9118
  0
VERTEX
  5
b01
  8
Layer_3
  10
165.62726
  20
345.45319
  0
VERTEX
  5
b02
  8
Layer_3
  10
165.67285
  20
345.54419
  0
VERTEX
  5
b03
  8
Layer_3
  10
165.93976
  20
346.09161
  0
VERTEX
  5
b04
  8
Layer_3
  10
165.98306
  20
346.18286
  0
VERTEX
  5
b05
  8
Layer_3
  10
166.23682
  20
346.73596
  0
VERTEX
  5
b06
  8
Layer_3
  10
166.27722
  20
346.82697
  0
VERTEX
  5
b07
  8
Layer_3
  10
166.51801
  20
347.38574
  0
VERTEX
  5
b08
  8
Layer_3
  10
166.55771
  20
347.4809
  0
VERTEX
  5
b09
  8
Layer_3
  10
166.78491
  20
348.0451
  0
VERTEX
  5
b0a
  8
Layer_3
  10
166.82111
  20
348.13867
  0
VERTEX
  5
b0b
  8
Layer_3
  10
167.03491
  20
348.7077
  0
VERTEX
  5
b0c
  8
Layer_3
  10
167.06921
  20
348.80182
  0
VERTEX
  5
b0d
  8
Layer_3
  10
167.26962
  20
349.37567
  0
VERTEX
  5
b0e
  8
Layer_3
  10
167.30121
  20
349.46979
  0
VERTEX
  5
b0f
  8
Layer_3
  10
167.48822
  20
350.04803
  0
VERTEX
  5
b10
  8
Layer_3
  10
167.51852
  20
350.14569
  0
VERTEX
  5
b11
  8
Layer_3
  10
167.69174
  20
350.72833
  0
VERTEX
  5
b12
  8
Layer_3
  10
167.71936
  20
350.82513
  0
VERTEX
  5
b13
  8
Layer_3
  10
167.87875
  20
351.41156
  0
VERTEX
  5
b14
  8
Layer_3
  10
167.90405
  20
351.50964
  0
VERTEX
  5
b15
  8
Layer_3
  10
168.04965
  20
352.10004
  0
VERTEX
  5
b16
  8
Layer_3
  10
168.07245
  20
352.19708
  0
VERTEX
  5
b17
  8
Layer_3
  10
168.20425
  20
352.79059
  0
VERTEX
  5
b18
  8
Layer_3
  10
168.22473
  20
352.88849
  0
VERTEX
  5
b19
  8
Layer_3
  10
168.34274
  20
353.48529
  0
VERTEX
  5
b1a
  8
Layer_3
  10
168.36133
  20
353.58618
  0
VERTEX
  5
b1b
  8
Layer_3
  10
168.46509
  20
354.18616
  0
VERTEX
  5
b1c
  8
Layer_3
  10
168.48099
  20
354.28485
  0
VERTEX
  5
b1d
  8
Layer_3
  10
168.57071
  20
354.88715
  0
VERTEX
  5
b1e
  8
Layer_3
  10
168.58472
  20
354.98926
  0
VERTEX
  5
b1f
  8
Layer_3
  10
168.66
  20
355.59424
  0
VERTEX
  5
b20
  8
Layer_3
  10
168.67111
  20
355.69296
  0
VERTEX
  5
b21
  8
Layer_3
  10
168.73239
  20
356.29984
  0
VERTEX
  5
b22
  8
Layer_3
  10
168.74139
  20
356.4017
  0
VERTEX
  5
b23
  8
Layer_3
  10
168.7883
  20
357.01071
  0
VERTEX
  5
b24
  8
Layer_3
  10
168.79431
  20
357.11215
  0
VERTEX
  5
b25
  8
Layer_3
  10
168.82681
  20
357.72281
  0
VERTEX
  5
b26
  8
Layer_3
  10
168.83081
  20
357.82553
  0
VERTEX
  5
b27
  8
Layer_3
  10
168.8486
  20
358.43723
  0
VERTEX
  5
b28
  8
Layer_3
  10
168.85062
  20
358.5397
  0
VERTEX
  5
b29
  8
Layer_3
  10
168.85361
  20
359.15286
  0
SEQEND
  0
POLYLINE
  5
b2b
  8
Layer_3
  62
52
  66
1
  10
0
  20
0
  30
0
  0
VERTEX
  5
b2b
  8
Layer_3
  10
231.95197
  20
361.37668
  0
VERTEX
  5
b2c
  8
Layer_3
  10
231.89586
  20
361.99149
  0
VERTEX
  5
b2d
  8
Layer_3
  10
231.88536
  20
362.09363
  0
VERTEX
  5
b2e
  8
Layer_3
  10
231.81445
  20
362.70822
  0
VERTEX
  5
b2f
  8
Layer_3
  10
231.80106
  20
362.81238
  0
VERTEX
  5
b30
  8
Layer_3
  10
231.71486
  20
363.42661
  0
VERTEX
  5
b31
  8
Layer_3
  10
231.69936
  20
363.52908
  0
VERTEX
  5
b32
  8
Layer_3
  10
231.59813
  20
364.14243
  0
VERTEX
  5
b33
  8
Layer_3
  10
231.57973
  20
364.24524
  0
VERTEX
  5
b34
  8
Layer_3
  10
231.46321
  20
364.8577
  0
VERTEX
  5
b35
  8
Layer_3
  10
231.4425
  20
364.96002
  0
VERTEX
  5
b36
  8
Layer_3
  10
231.31071
  20
365.57126
  0
VERTEX
  5
b37
  8
Layer_3
  10
231.28702
  20
365.67441
  0
VERTEX
  5
b38
  8
Layer_3
  10
231.13974
  20
366.28403
  0
VERTEX
  5
b39
  8
Layer_3
  10
231.11404
  20
366.38571
  0
VERTEX
  5
b3a
  8
Layer_3
  10
230.95131
  20
366.9938
  0
VERTEX
  5
b3b
  8
Layer_3
  10
230.92241
  20
367.09653
  0
VERTEX
  5
b3c
  8
Layer_3
  10
230.74394
  20
367.70236
  0
VERTEX
  5
b3d
  8
Layer_3
  10
230.71324
  20
367.80215
  0
VERTEX
  5
b3e
  8
Layer_3
  10
230.5193
  20
368.40591
  0
VERTEX
  5
b3f
  8
Layer_3
  10
230.4852
  20
368.50778
  0
VERTEX
  5
b40
  8
Layer_3
  10
230.27536
  20
369.1088
  0
VERTEX
  5
b41
  8
Layer_3
  10
230.23956
  20
369.20743
  0
VERTEX
  5
b42
  8
Layer_3
  10
230.01404
  20
369.80594
  0
VERTEX
  5
b43
  8
Layer_3
  10
229.97453
  20
369.90695
  0
VERTEX
  5
b44
  8
Layer_3
  10
229.73289
  20
370.50211
  0
VERTEX
  5
b45
  8
Layer_3
  10
229.69249
  20
370.59821
  0
VERTEX
  5
b46
  8
Layer_3
  10
229.4352
  20
371.19025
  0
VERTEX
  5
b47
  8
Layer_3
  10
229.39079
  20
371.28894
  0
VERTEX
  5
b48
  8
Layer_3
  10
229.11717
  20
371.87744
  0
VERTEX
  5
b49
  8
Layer_3
  10
229.07077
  20
371.97385
  0
VERTEX
  5
b4a
  8
Layer_3
  10
228.78104
  20
372.55832
  0
VERTEX
  5
b4b
  8
Layer_3
  10
228.73274
  20
372.65311
  0
VERTEX
  5
b4c
  8
Layer_3
  10
228.43507
  20
373.21793
  0
VERTEX
  5
b4d
  8
Layer_3
  10
228.38397
  20
373.31165
  0
VERTEX
  5
b4e
  8
Layer_3
  10
228.0731
  20
373.86743
  0
VERTEX
  5
b4f
  8
Layer_3
  10
228.0204
  20
373.95932
  0
VERTEX
  5
b50
  8
Layer_3
  10
227.69658
  20
374.5062
  0
VERTEX
  5
b51
  8
Layer_3
  10
227.64159
  20
374.59659
  0
VERTEX
  5
b52
  8
Layer_3
  10
227.30499
  20
375.13419
  0
VERTEX
  5
b53
  8
Layer_3
  10
227.2477
  20
375.22308
  0
VERTEX
  5
b54
  8
Layer_3
  10
226.89854
  20
375.75128
  0
VERTEX
  5
b55
  8
Layer_3
  10
226.83974
  20
375.83789
  0
VERTEX
  5
b56
  8
Layer_3
  10
226.47844
  20
376.35651
  0
VERTEX
  5
b57
  8
Layer_3
  10
226.41634
  20
376.4433
  0
VERTEX
  5
b58
  8
Layer_3
  10
226.04271
  20
376.95209
  0
VERTEX
  5
b59
  8
Layer_3
  10
225.98041
  20
377.03488
  0
VERTEX
  5
b5a
  8
Layer_3
  10
225.59506
  20
377.53384
  0
VERTEX
  5
b5b
  8
Layer_3
  10
225.52997
  20
377.61584
  0
VERTEX
  5
b5c
  8
Layer_3
  10
225.13312
  20
378.10455
  0
VERTEX
  5
b5d
  8
Layer_3
  10
225.06592
  20
378.18524
  0
VERTEX
  5
b5e
  8
Layer_3
  10
224.65756
  20
378.6637
  0
VERTEX
  5
b5f
  8
Layer_3
  10
224.58786
  20
378.74319
  0
VERTEX
  5
b60
  8
Layer_3
  10
224.16821
  20
379.21097
  0
VERTEX
  5
b61
  8
Layer_3
  10
224.09731
  20
379.28818
  0
VERTEX
  5
b62
  8
Layer_3
  10
223.66656
  20
379.74527
  0
VERTEX
  5
b63
  8
Layer_3
  10
223.59497
  20
379.81924
  0
VERTEX
  5
b64
  8
Layer_3
  10
223.15378
  20
380.26547
  0
VERTEX
  5
b65
  8
Layer_3
  10
223.07828
  20
380.34
  0
VERTEX
  5
b66
  8
Layer_3
  10
222.62619
  20
380.77512
  0
VERTEX
  5
b67
  8
Layer_3
  10
222.55029
  20
380.8465
  0
VERTEX
  5
b68
  8
Layer_3
  10
222.08797
  20
381.27032
  0
VERTEX
  5
b69
  8
Layer_3
  10
222.01117
  20
381.33914
  0
VERTEX
  5
b6a
  8
Layer_3
  10
221.5388
  20
381.75168
  0
VERTEX
  5
b6b
  8
Layer_3
  10
221.45911
  20
381.81946
  0
VERTEX
  5
b6c
  8
Layer_3
  10
220.9769
  20
382.22031
  0
VERTEX
  5
b6d
  8
Layer_3
  10
220.8949
  20
382.28683
  0
VERTEX
  5
b6e
  8
Layer_3
  10
220.40286
  20
382.67569
  0
VERTEX
  5
b6f
  8
Layer_3
  10
220.32086
  20
382.73907
  0
VERTEX
  5
b70
  8
Layer_3
  10
219.81943
  20
383.11603
  0
VERTEX
  5
b71
  8
Layer_3
  10
219.73473
  20
383.17795
  0
VERTEX
  5
b72
  8
Layer_3
  10
219.22388
  20
383.54276
  0
VERTEX
  5
b73
  8
Layer_3
  10
219.13806
  20
383.60254
  0
VERTEX
  5
b74
  8
Layer_3
  10
218.61842
  20
383.95483
  0
VERTEX
  5
b75
  8
Layer_3
  10
218.53162
  20
384.01224
  0
VERTEX
  5
b76
  8
Layer_3
  10
218.00298
  20
384.35214
  0
VERTEX
  5
b77
  8
Layer_3
  10
217.91327
  20
384.40823
  0
VERTEX
  5
b78
  8
Layer_3
  10
217.37605
  20
384.7352
  0
VERTEX
  5
b79
  8
Layer_3
  10
217.28615
  20
384.78851
  0
VERTEX
  5
b7a
  8
Layer_3
  10
216.74036
  20
385.10272
  0
VERTEX
  5
b7b
  8
Layer_3
  10
216.64914
  20
385.15384
  0
VERTEX
  5
b7c
  8
Layer_3
  10
216.09538
  20
385.45486
  0
VERTEX
  5
b7d
  8
Layer_3
  10
216.00188
  20
385.50415
  0
VERTEX
  5
b7e
  8
Layer_3
  10
215.44019
  20
385.79181
  0
VERTEX
  5
b7f
  8
Layer_3
  10
215.3465
  20
385.83829
  0
VERTEX
  5
b80
  8
Layer_3
  10
214.77704
  20
386.11258
  0
VERTEX
  5
b81
  8
Layer_3
  10
214.68124
  20
386.15729
  0
VERTEX
  5
b82
  8
Layer_3
  10
214.10406
  20
386.41797
  0
VERTEX
  5
b83
  8
Layer_3
  10
214.00696
  20
386.46048
  0
VERTEX
  5
b84
  8
Layer_3
  10
213.42267
  20
386.70706
  0
VERTEX
  5
b85
  8
Layer_3
  10
213.32477
  20
386.74704
  0
VERTEX
  5
b86
  8
Layer_3
  10
212.73337
  20
386.97964
  0
VERTEX
  5
b87
  8
Layer_3
  10
212.63416
  20
387.01715
  0
VERTEX
  5
b88
  8
Layer_3
  10
212.03586
  20
387.23553
  0
VERTEX
  5
b89
  8
Layer_3
  10
211.93665
  20
387.27054
  0
VERTEX
  5
b8a
  8
Layer_3
  10
211.33163
  20
387.4747
  0
VERTEX
  5
b8b
  8
Layer_3
  10
211.22935
  20
387.50778
  0
VERTEX
  5
b8c
  8
Layer_3
  10
210.61955
  20
387.69669
  0
VERTEX
  5
b8d
  8
Layer_3
  10
210.51682
  20
387.72702
  0
VERTEX
  5
b8e
  8
Layer_3
  10
209.90388
  20
387.90024
  0
VERTEX
  5
b8f
  8
Layer_3
  10
209.80347
  20
387.92743
  0
VERTEX
  5
b90
  8
Layer_3
  10
209.18777
  20
388.08539
  0
VERTEX
  5
b91
  8
Layer_3
  10
209.08423
  20
388.1105
  0
VERTEX
  5
b92
  8
Layer_3
  10
208.46626
  20
388.25278
  0
VERTEX
  5
b93
  8
Layer_3
  10
208.36292
  20
388.27518
  0
VERTEX
  5
b94
  8
Layer_3
  10
207.74243
  20
388.40195
  0
VERTEX
  5
b95
  8
Layer_3
  10
207.63908
  20
388.42172
  0
VERTEX
  5
b96
  8
Layer_3
  10
207.01694
  20
388.53305
  0
VERTEX
  5
b97
  8
Layer_3
  10
206.9115
  20
388.55066
  0
VERTEX
  5
b98
  8
Layer_3
  10
206.28767
  20
388.64627
  0
VERTEX
  5
b99
  8
Layer_3
  10
206.18475
  20
388.66068
  0
VERTEX
  5
b9a
  8
Layer_3
  10
205.55966
  20
388.74106
  0
VERTEX
  5
b9b
  8
Layer_3
  10
205.45631
  20
388.75296
  0
VERTEX
  5
b9c
  8
Layer_3
  10
204.82999
  20
388.81805
  0
VERTEX
  5
b9d
  8
Layer_3
  10
204.72371
  20
388.82803
  0
VERTEX
  5
b9e
  8
Layer_3
  10
204.09676
  20
388.87744
  0
VERTEX
  5
b9f
  8
Layer_3
  10
203.99425
  20
388.88443
  0
VERTEX
  5
ba0
  8
Layer_3
  10
203.36665
  20
388.91873
  0
VERTEX
  5
ba1
  8
Layer_3
  10
203.26123
  20
388.92374
  0
VERTEX
  5
ba2
  8
Layer_3
  10
202.63364
  20
388.94266
  0
VERTEX
  5
ba3
  8
Layer_3
  10
202.52798
  20
388.94467
  0
VERTEX
  5
ba4
  8
Layer_3
  10
201.90039
  20
388.94766
  0
VERTEX
  5
ba5
  8
Layer_3
  10
201.7962
  20
388.94687
  0
VERTEX
  5
ba6
  8
Layer_3
  10
201.16884
  20
388.93488
  0
VERTEX
  5
ba7
  8
Layer_3
  10
201.0659
  20
388.93185
  0
VERTEX
  5
ba8
  8
Layer_3
  10
200.43936
  20
388.90488
  0
VERTEX
  5
ba9
  8
Layer_3
  10
200.3335
  20
388.8989
  0
VERTEX
  5
baa
  8
Layer_3
  10
199.70779
  20
388.85638
  0
VERTEX
  5
bab
  8
Layer_3
  10
199.60486
  20
388.84839
  0
VERTEX
  5
bac
  8
Layer_3
  10
198.98042
  20
388.79089
  0
VERTEX
  5
bad
  8
Layer_3
  10
198.87624
  20
388.78
  0
VERTEX
  5
bae
  8
Layer_3
  10
198.25323
  20
388.70731
  0
VERTEX
  5
baf
  8
Layer_3
  10
198.14906
  20
388.6937
  0
VERTEX
  5
bb0
  8
Layer_3
  10
197.52795
  20
388.60562
  0
VERTEX
  5
bb1
  8
Layer_3
  10
197.42523
  20
388.5899
  0
VERTEX
  5
bb2
  8
Layer_3
  10
196.80621
  20
388.48676
  0
VERTEX
  5
bb3
  8
Layer_3
  10
196.70287
  20
388.46817
  0
VERTEX
  5
bb4
  8
Layer_3
  10
196.08595
  20
388.34976
  0
VERTEX
  5
bb5
  8
Layer_3
  10
195.98344
  20
388.32883
  0
VERTEX
  5
bb6
  8
Layer_3
  10
195.36945
  20
388.19534
  0
VERTEX
  5
bb7
  8
Layer_3
  10
195.26778
  20
388.17197
  0
VERTEX
  5
bb8
  8
Layer_3
  10
194.65651
  20
388.02341
  0
VERTEX
  5
bb9
  8
Layer_3
  10
194.55482
  20
387.99728
  0
VERTEX
  5
bba
  8
Layer_3
  10
193.9469
  20
387.83365
  0
VERTEX
  5
bbb
  8
Layer_3
  10
193.84607
  20
387.80527
  0
VERTEX
  5
bbc
  8
Layer_3
  10
193.24149
  20
387.62662
  0
VERTEX
  5
bbd
  8
Layer_3
  10
193.14044
  20
387.59543
  0
VERTEX
  5
bbe
  8
Layer_3
  10
192.53984
  20
387.40176
  0
VERTEX
  5
bbf
  8
Layer_3
  10
192.44005
  20
387.36826
  0
VERTEX
  5
bc0
  8
Layer_3
  10
191.84341
  20
387.15952
  0
VERTEX
  5
bc1
  8
Layer_3
  10
191.74532
  20
387.12372
  0
VERTEX
  5
bc2
  8
Layer_3
  10
191.15286
  20
386.90009
  0
VERTEX
  5
bc3
  8
Layer_3
  10
191.05367
  20
386.86118
  0
VERTEX
  5
bc4
  8
Layer_3
  10
190.46603
  20
386.6225
  0
VERTEX
  5
bc5
  8
Layer_3
  10
190.36914
  20
386.58188
  0
VERTEX
  5
bc6
  8
Layer_3
  10
189.78632
  20
386.32834
  0
VERTEX
  5
bc7
  8
Layer_3
  10
189.69011
  20
386.28506
  0
VERTEX
  5
bc8
  8
Layer_3
  10
189.11252
  20
386.01663
  0
VERTEX
  5
bc9
  8
Layer_3
  10
189.01582
  20
385.97021
  0
VERTEX
  5
bca
  8
Layer_3
  10
188.44366
  20
385.68677
  0
VERTEX
  5
bcb
  8
Layer_3
  10
188.34767
  20
385.63779
  0
VERTEX
  5
bcc
  8
Layer_3
  10
187.77071
  20
385.33359
  0
VERTEX
  5
bcd
  8
Layer_3
  10
187.6774
  20
385.28278
  0
VERTEX
  5
bce
  8
Layer_3
  10
187.1111
  20
384.966
  0
VERTEX
  5
bcf
  8
Layer_3
  10
187.0186
  20
384.9129
  0
VERTEX
  5
bd0
  8
Layer_3
  10
186.46318
  20
384.5838
  0
VERTEX
  5
bd1
  8
Layer_3
  10
186.37158
  20
384.52798
  0
VERTEX
  5
bd2
  8
Layer_3
  10
185.82726
  20
384.1868
  0
VERTEX
  5
bd3
  8
Layer_3
  10
185.73915
  20
384.1301
  0
VERTEX
  5
bd4
  8
Layer_3
  10
185.20592
  20
383.77737
  0
VERTEX
  5
bd5
  8
Layer_3
  10
185.11742
  20
383.71719
  0
VERTEX
  5
bd6
  8
Layer_3
  10
184.59526
  20
383.35281
  0
VERTEX
  5
bd7
  8
Layer_3
  10
184.50826
  20
383.29041
  0
VERTEX
  5
bd8
  8
Layer_3
  10
183.9976
  20
382.91467
  0
VERTEX
  5
bd9
  8
Layer_3
  10
183.91371
  20
382.85138
  0
VERTEX
  5
bda
  8
Layer_3
  10
183.41415
  20
382.46454
  0
VERTEX
  5
bdb
  8
Layer_3
  10
183.33156
  20
382.39914
  0
VERTEX
  5
bdc
  8
Layer_3
  10
182.84351
  20
382.00162
  0
VERTEX
  5
bdd
  8
Layer_3
  10
182.7623
  20
381.93369
  0
VERTEX
  5
bde
  8
Layer_3
  10
182.28596
  20
381.52573
  0
VERTEX
  5
bdf
  8
Layer_3
  10
182.20726
  20
381.45676
  0
VERTEX
  5
be0
  8
Layer_3
  10
181.74242
  20
381.03854
  0
VERTEX
  5
be1
  8
Layer_3
  10
181.66502
  20
380.96744
  0
VERTEX
  5
be2
  8
Layer_3
  10
181.2119
  20
380.53922
  0
VERTEX
  5
be3
  8
Layer_3
  10
181.13741
  20
380.46701
  0
VERTEX
  5
be4
  8
Layer_3
  10
180.696
  20
380.02921
  0
VERTEX
  5
be5
  8
Layer_3
  10
180.62219
  20
379.95407
  0
VERTEX
  5
be6
  8
Layer_3
  10
180.19272
  20
379.50662
  0
VERTEX
  5
be7
  8
Layer_3
  10
180.12262
  20
379.43164
  0
VERTEX
  5
be8
  8
Layer_3
  10
179.70508
  20
378.97522
  0
VERTEX
  5
be9
  8
Layer_3
  10
179.63498
  20
378.8967
  0
VERTEX
  5
bea
  8
Layer_3
  10
179.22955
  20
378.43106
  0
VERTEX
  5
beb
  8
Layer_3
  10
179.16365
  20
378.35349
  0
VERTEX
  5
bec
  8
Layer_3
  10
178.77016
  20
377.87924
  0
VERTEX
  5
bed
  8
Layer_3
  10
178.70445
  20
377.79803
  0
VERTEX
  5
bee
  8
Layer_3
  10
178.3235
  20
377.31543
  0
VERTEX
  5
bef
  8
Layer_3
  10
178.2614
  20
377.23483
  0
VERTEX
  5
bf0
  8
Layer_3
  10
177.89259
  20
376.74411
  0
VERTEX
  5
bf1
  8
Layer_3
  10
177.83209
  20
376.66153
  0
VERTEX
  5
bf2
  8
Layer_3
  10
177.47562
  20
376.16275
  0
VERTEX
  5
bf3
  8
Layer_3
  10
177.41661
  20
376.07822
  0
VERTEX
  5
bf4
  8
Layer_3
  10
177.07269
  20
375.57175
  0
VERTEX
  5
bf5
  8
Layer_3
  10
177.01599
  20
375.48596
  0
VERTEX
  5
bf6
  8
Layer_3
  10
176.68484
  20
374.97217
  0
VERTEX
  5
bf7
  8
Layer_3
  10
176.63164
  20
374.88766
  0
VERTEX
  5
bf8
  8
Layer_3
  10
176.31282
  20
374.36679
  0
VERTEX
  5
bf9
  8
Layer_3
  10
176.25972
  20
374.27759
  0
VERTEX
  5
bfa
  8
Layer_3
  10
175.95387
  20
373.74957
  0
VERTEX
  5
bfb
  8
Layer_3
  10
175.90488
  20
373.66275
  0
VERTEX
  5
bfc
  8
Layer_3
  10
175.61179
  20
373.12845
  0
VERTEX
  5
bfd
  8
Layer_3
  10
175.56349
  20
373.03787
  0
VERTEX
  5
bfe
  8
Layer_3
  10
175.28339
  20
372.49686
  0
VERTEX
  5
bff
  8
Layer_3
  10
175.23839
  20
372.40756
  0
VERTEX
  5
c00
  8
Layer_3
  10
174.97124
  20
371.86075
  0
VERTEX
  5
c01
  8
Layer_3
  10
174.92813
  20
371.76944
  0
VERTEX
  5
c02
  8
Layer_3
  10
174.67395
  20
371.21652
  0
VERTEX
  5
c03
  8
Layer_3
  10
174.63255
  20
371.12363
  0
VERTEX
  5
c04
  8
Layer_3
  10
174.39177
  20
370.56528
  0
VERTEX
  5
c05
  8
Layer_3
  10
174.35327
  20
370.47308
  0
VERTEX
  5
c06
  8
Layer_3
  10
174.12566
  20
369.90948
  0
VERTEX
  5
c07
  8
Layer_3
  10
174.08885
  20
369.81519
  0
VERTEX
  5
c08
  8
Layer_3
  10
173.87463
  20
369.24634
  0
VERTEX
  5
c09
  8
Layer_3
  10
173.84033
  20
369.15195
  0
VERTEX
  5
c0a
  8
Layer_3
  10
173.6395
  20
368.57834
  0
VERTEX
  5
c0b
  8
Layer_3
  10
173.6073
  20
368.48251
  0
VERTEX
  5
c0c
  8
Layer_3
  10
173.42006
  20
367.90436
  0
VERTEX
  5
c0d
  8
Layer_3
  10
173.39037
  20
367.80856
  0
VERTEX
  5
c0e
  8
Layer_3
  10
173.21672
  20
367.22617
  0
VERTEX
  5
c0f
  8
Layer_3
  10
173.18912
  20
367.12967
  0
VERTEX
  5
c10
  8
Layer_3
  10
173.02908
  20
366.54312
  0
VERTEX
  5
c11
  8
Layer_3
  10
173.00339
  20
366.44421
  0
VERTEX
  5
c12
  8
Layer_3
  10
172.85738
  20
365.85382
  0
VERTEX
  5
c13
  8
Layer_3
  10
172.83478
  20
365.75781
  0
VERTEX
  5
c14
  8
Layer_3
  10
172.70236
  20
365.16412
  0
VERTEX
  5
c15
  8
Layer_3
  10
172.68126
  20
365.06348
  0
VERTEX
  5
c16
  8
Layer_3
  10
172.56306
  20
364.46646
  0
VERTEX
  5
c17
  8
Layer_3
  10
172.54486
  20
364.36856
  0
VERTEX
  5
c18
  8
Layer_3
  10
172.44048
  20
363.7684
  0
VERTEX
  5
c19
  8
Layer_3
  10
172.42398
  20
363.66647
  0
VERTEX
  5
c1a
  8
Layer_3
  10
172.33398
  20
363.06357
  0
VERTEX
  5
c1b
  8
Layer_3
  10
172.32039
  20
362.96475
  0
VERTEX
  5
c1c
  8
Layer_3
  10
172.24449
  20
362.35959
  0
VERTEX
  5
c1d
  8
Layer_3
  10
172.23299
  20
362.25748
  0
VERTEX
  5
c1e
  8
Layer_3
  10
172.17149
  20
361.64975
  0
VERTEX
  5
c1f
  8
Layer_3
  10
172.16249
  20
361.54977
  0
VERTEX
  5
c20
  8
Layer_3
  10
172.11519
  20
360.94037
  0
VERTEX
  5
c21
  8
Layer_3
  10
172.10818
  20
360.8374
  0
SEQEND
  0
POLYLINE
  5
c23
  8
Layer_3
  62
52
  66
1
  10
0
  20
0
  30
0
  0
VERTEX
  5
c23
  8
Layer_3
  10
231.952
  20
356.03683
  0
VERTEX
  5
c24
  8
Layer_3
  10
231.89589
  20
355.42203
  0
VERTEX
  5
c25
  8
Layer_3
  10
231.88539
  20
355.31992
  0
VERTEX
  5
c26
  8
Layer_3
  10
231.81448
  20
354.70529
  0
VERTEX
  5
c27
  8
Layer_3
  10
231.80109
  20
354.60117
  0
VERTEX
  5
c28
  8
Layer_3
  10
231.71489
  20
353.98691
  0
VERTEX
  5
c29
  8
Layer_3
  10
231.69939
  20
353.88443
  0
VERTEX
  5
c2a
  8
Layer_3
  10
231.59816
  20
353.27109
  0
VERTEX
  5
c2b
  8
Layer_3
  10
231.57976
  20
353.1683
  0
VERTEX
  5
c2c
  8
Layer_3
  10
231.46324
  20
352.55582
  0
VERTEX
  5
c2d
  8
Layer_3
  10
231.44254
  20
352.45352
  0
VERTEX
  5
c2e
  8
Layer_3
  10
231.31075
  20
351.84225
  0
VERTEX
  5
c2f
  8
Layer_3
  10
231.28705
  20
351.73911
  0
VERTEX
  5
c30
  8
Layer_3
  10
231.13979
  20
351.12949
  0
VERTEX
  5
c31
  8
Layer_3
  10
231.11409
  20
351.0278
  0
VERTEX
  5
c32
  8
Layer_3
  10
230.95135
  20
350.41971
  0
VERTEX
  5
c33
  8
Layer_3
  10
230.92245
  20
350.31699
  0
VERTEX
  5
c34
  8
Layer_3
  10
230.74397
  20
349.71115
  0
VERTEX
  5
c35
  8
Layer_3
  10
230.71327
  20
349.61136
  0
VERTEX
  5
c36
  8
Layer_3
  10
230.51933
  20
349.0076
  0
VERTEX
  5
c37
  8
Layer_3
  10
230.48523
  20
348.90573
  0
VERTEX
  5
c38
  8
Layer_3
  10
230.27538
  20
348.30472
  0
VERTEX
  5
c39
  8
Layer_3
  10
230.23958
  20
348.20609
  0
VERTEX
  5
c3a
  8
Layer_3
  10
230.01405
  20
347.60757
  0
VERTEX
  5
c3b
  8
Layer_3
  10
229.97455
  20
347.50656
  0
VERTEX
  5
c3c
  8
Layer_3
  10
229.73289
  20
346.91141
  0
VERTEX
  5
c3d
  8
Layer_3
  10
229.69249
  20
346.81534
  0
VERTEX
  5
c3e
  8
Layer_3
  10
229.4352
  20
346.2233
  0
VERTEX
  5
c3f
  8
Layer_3
  10
229.39079
  20
346.12457
  0
VERTEX
  5
c40
  8
Layer_3
  10
229.11716
  20
345.53607
  0
VERTEX
  5
c41
  8
Layer_3
  10
229.07076
  20
345.43967
  0
VERTEX
  5
c42
  8
Layer_3
  10
228.78102
  20
344.85519
  0
VERTEX
  5
c43
  8
Layer_3
  10
228.73273
  20
344.76041
  0
VERTEX
  5
c44
  8
Layer_3
  10
228.43506
  20
344.19559
  0
VERTEX
  5
c45
  8
Layer_3
  10
228.38396
  20
344.1019
  0
VERTEX
  5
c46
  8
Layer_3
  10
228.07309
  20
343.54608
  0
VERTEX
  5
c47
  8
Layer_3
  10
228.02039
  20
343.45419
  0
VERTEX
  5
c48
  8
Layer_3
  10
227.69655
  20
342.90732
  0
VERTEX
  5
c49
  8
Layer_3
  10
227.64156
  20
342.81693
  0
VERTEX
  5
c4a
  8
Layer_3
  10
227.30495
  20
342.27933
  0
VERTEX
  5
c4b
  8
Layer_3
  10
227.24765
  20
342.19043
  0
VERTEX
  5
c4c
  8
Layer_3
  10
226.89848
  20
341.66223
  0
VERTEX
  5
c4d
  8
Layer_3
  10
226.83968
  20
341.57562
  0
VERTEX
  5
c4e
  8
Layer_3
  10
226.47838
  20
341.05704
  0
VERTEX
  5
c4f
  8
Layer_3
  10
226.41628
  20
340.97021
  0
VERTEX
  5
c50
  8
Layer_3
  10
226.04266
  20
340.46146
  0
VERTEX
  5
c51
  8
Layer_3
  10
225.98038
  20
340.37863
  0
VERTEX
  5
c52
  8
Layer_3
  10
225.59503
  20
339.87967
  0
VERTEX
  5
c53
  8
Layer_3
  10
225.52994
  20
339.79767
  0
VERTEX
  5
c54
  8
Layer_3
  10
225.1331
  20
339.30899
  0
VERTEX
  5
c55
  8
Layer_3
  10
225.0659
  20
339.22827
  0
VERTEX
  5
c56
  8
Layer_3
  10
224.65755
  20
338.74982
  0
VERTEX
  5
c57
  8
Layer_3
  10
224.58784
  20
338.67032
  0
VERTEX
  5
c58
  8
Layer_3
  10
224.1682
  20
338.20255
  0
VERTEX
  5
c59
  8
Layer_3
  10
224.09729
  20
338.12534
  0
VERTEX
  5
c5a
  8
Layer_3
  10
223.66655
  20
337.66824
  0
VERTEX
  5
c5b
  8
Layer_3
  10
223.59496
  20
337.59427
  0
VERTEX
  5
c5c
  8
Layer_3
  10
223.15376
  20
337.14804
  0
VERTEX
  5
c5d
  8
Layer_3
  10
223.07826
  20
337.07352
  0
VERTEX
  5
c5e
  8
Layer_3
  10
222.62619
  20
336.6384
  0
VERTEX
  5
c5f
  8
Layer_3
  10
222.55029
  20
336.56699
  0
VERTEX
  5
c60
  8
Layer_3
  10
222.08795
  20
336.14316
  0
VERTEX
  5
c61
  8
Layer_3
  10
222.01115
  20
336.07437
  0
VERTEX
  5
c62
  8
Layer_3
  10
221.53879
  20
335.66183
  0
VERTEX
  5
c63
  8
Layer_3
  10
221.45911
  20
335.59402
  0
VERTEX
  5
c64
  8
Layer_3
  10
220.97688
  20
335.19315
  0
VERTEX
  5
c65
  8
Layer_3
  10
220.89488
  20
335.12668
  0
VERTEX
  5
c66
  8
Layer_3
  10
220.40285
  20
334.73779
  0
VERTEX
  5
c67
  8
Layer_3
  10
220.32085
  20
334.67441
  0
VERTEX
  5
c68
  8
Layer_3
  10
219.81941
  20
334.29745
  0
VERTEX
  5
c69
  8
Layer_3
  10
219.73471
  20
334.23553
  0
VERTEX
  5
c6a
  8
Layer_3
  10
219.22385
  20
333.87076
  0
VERTEX
  5
c6b
  8
Layer_3
  10
219.13805
  20
333.81094
  0
VERTEX
  5
c6c
  8
Layer_3
  10
218.61842
  20
333.45865
  0
VERTEX
  5
c6d
  8
Layer_3
  10
218.53162
  20
333.40125
  0
VERTEX
  5
c6e
  8
Layer_3
  10
218.00298
  20
333.06137
  0
VERTEX
  5
c6f
  8
Layer_3
  10
217.91327
  20
333.00525
  0
VERTEX
  5
c70
  8
Layer_3
  10
217.37605
  20
332.67828
  0
VERTEX
  5
c71
  8
Layer_3
  10
217.28615
  20
332.62497
  0
VERTEX
  5
c72
  8
Layer_3
  10
216.74033
  20
332.31076
  0
VERTEX
  5
c73
  8
Layer_3
  10
216.64912
  20
332.25967
  0
VERTEX
  5
c74
  8
Layer_3
  10
216.09537
  20
331.95865
  0
VERTEX
  5
c75
  8
Layer_3
  10
216.00186
  20
331.90936
  0
VERTEX
  5
c76
  8
Layer_3
  10
215.44016
  20
331.6217
  0
VERTEX
  5
c77
  8
Layer_3
  10
215.34644
  20
331.5752
  0
VERTEX
  5
c78
  8
Layer_3
  10
214.77701
  20
331.3009
  0
VERTEX
  5
c79
  8
Layer_3
  10
214.68121
  20
331.2562
  0
VERTEX
  5
c7a
  8
Layer_3
  10
214.10402
  20
330.99551
  0
VERTEX
  5
c7b
  8
Layer_3
  10
214.00691
  20
330.95303
  0
VERTEX
  5
c7c
  8
Layer_3
  10
213.42262
  20
330.70645
  0
VERTEX
  5
c7d
  8
Layer_3
  10
213.32472
  20
330.66644
  0
VERTEX
  5
c7e
  8
Layer_3
  10
212.73331
  20
330.43384
  0
VERTEX
  5
c7f
  8
Layer_3
  10
212.63411
  20
330.39633
  0
VERTEX
  5
c80
  8
Layer_3
  10
212.03581
  20
330.17795
  0
VERTEX
  5
c81
  8
Layer_3
  10
211.93661
  20
330.14294
  0
VERTEX
  5
c82
  8
Layer_3
  10
211.3316
  20
329.93878
  0
VERTEX
  5
c83
  8
Layer_3
  10
211.22931
  20
329.9057
  0
VERTEX
  5
c84
  8
Layer_3
  10
210.61951
  20
329.7168
  0
VERTEX
  5
c85
  8
Layer_3
  10
210.51677
  20
329.68649
  0
VERTEX
  5
c86
  8
Layer_3
  10
209.90382
  20
329.51328
  0
VERTEX
  5
c87
  8
Layer_3
  10
209.80344
  20
329.48608
  0
VERTEX
  5
c88
  8
Layer_3
  10
209.18774
  20
329.32813
  0
VERTEX
  5
c89
  8
Layer_3
  10
209.0842
  20
329.30301
  0
VERTEX
  5
c8a
  8
Layer_3
  10
208.46623
  20
329.16074
  0
VERTEX
  5
c8b
  8
Layer_3
  10
208.36288
  20
329.13834
  0
VERTEX
  5
c8c
  8
Layer_3
  10
207.7424
  20
329.01157
  0
VERTEX
  5
c8d
  8
Layer_3
  10
207.63905
  20
328.99179
  0
VERTEX
  5
c8e
  8
Layer_3
  10
207.01691
  20
328.88046
  0
VERTEX
  5
c8f
  8
Layer_3
  10
206.91147
  20
328.86285
  0
VERTEX
  5
c90
  8
Layer_3
  10
206.28764
  20
328.76724
  0
VERTEX
  5
c91
  8
Layer_3
  10
206.18472
  20
328.75284
  0
VERTEX
  5
c92
  8
Layer_3
  10
205.55962
  20
328.67245
  0
VERTEX
  5
c93
  8
Layer_3
  10
205.45628
  20
328.66055
  0
VERTEX
  5
c94
  8
Layer_3
  10
204.82996
  20
328.59546
  0
VERTEX
  5
c95
  8
Layer_3
  10
204.72368
  20
328.58545
  0
VERTEX
  5
c96
  8
Layer_3
  10
204.09673
  20
328.53604
  0
VERTEX
  5
c97
  8
Layer_3
  10
203.99422
  20
328.52905
  0
VERTEX
  5
c98
  8
Layer_3
  10
203.36662
  20
328.49475
  0
VERTEX
  5
c99
  8
Layer_3
  10
203.2612
  20
328.48975
  0
VERTEX
  5
c9a
  8
Layer_3
  10
202.63361
  20
328.47086
  0
VERTEX
  5
c9b
  8
Layer_3
  10
202.52794
  20
328.46884
  0
VERTEX
  5
c9c
  8
Layer_3
  10
201.90036
  20
328.46585
  0
VERTEX
  5
c9d
  8
Layer_3
  10
201.79616
  20
328.46664
  0
VERTEX
  5
c9e
  8
Layer_3
  10
201.16878
  20
328.47867
  0
VERTEX
  5
c9f
  8
Layer_3
  10
201.06587
  20
328.48166
  0
VERTEX
  5
ca0
  8
Layer_3
  10
200.43933
  20
328.50864
  0
VERTEX
  5
ca1
  8
Layer_3
  10
200.33344
  20
328.51465
  0
VERTEX
  5
ca2
  8
Layer_3
  10
199.70775
  20
328.55716
  0
VERTEX
  5
ca3
  8
Layer_3
  10
199.60483
  20
328.56516
  0
VERTEX
  5
ca4
  8
Layer_3
  10
198.98038
  20
328.62265
  0
VERTEX
  5
ca5
  8
Layer_3
  10
198.87619
  20
328.63358
  0
VERTEX
  5
ca6
  8
Layer_3
  10
198.25319
  20
328.70627
  0
VERTEX
  5
ca7
  8
Layer_3
  10
198.14902
  20
328.71988
  0
VERTEX
  5
ca8
  8
Layer_3
  10
197.52791
  20
328.80795
  0
VERTEX
  5
ca9
  8
Layer_3
  10
197.42519
  20
328.82367
  0
VERTEX
  5
caa
  8
Layer_3
  10
196.80617
  20
328.92682
  0
VERTEX
  5
cab
  8
Layer_3
  10
196.70282
  20
328.9454
  0
VERTEX
  5
cac
  8
Layer_3
  10
196.08591
  20
329.06381
  0
VERTEX
  5
cad
  8
Layer_3
  10
195.9834
  20
329.08472
  0
VERTEX
  5
cae
  8
Layer_3
  10
195.3694
  20
329.2182
  0
VERTEX
  5
caf
  8
Layer_3
  10
195.26773
  20
329.24161
  0
VERTEX
  5
cb0
  8
Layer_3
  10
194.65646
  20
329.39017
  0
VERTEX
  5
cb1
  8
Layer_3
  10
194.55478
  20
329.41626
  0
VERTEX
  5
cb2
  8
Layer_3
  10
193.94685
  20
329.5799
  0
VERTEX
  5
cb3
  8
Layer_3
  10
193.84602
  20
329.60831
  0
VERTEX
  5
cb4
  8
Layer_3
  10
193.24144
  20
329.78696
  0
VERTEX
  5
cb5
  8
Layer_3
  10
193.1404
  20
329.81815
  0
VERTEX
  5
cb6
  8
Layer_3
  10
192.53979
  20
330.01181
  0
VERTEX
  5
cb7
  8
Layer_3
  10
192.44
  20
330.04532
  0
VERTEX
  5
cb8
  8
Layer_3
  10
191.84337
  20
330.25406
  0
VERTEX
  5
cb9
  8
Layer_3
  10
191.74527
  20
330.28986
  0
VERTEX
  5
cba
  8
Layer_3
  10
191.15282
  20
330.51349
  0
VERTEX
  5
cbb
  8
Layer_3
  10
191.05362
  20
330.5524
  0
VERTEX
  5
cbc
  8
Layer_3
  10
190.46599
  20
330.79108
  0
VERTEX
  5
cbd
  8
Layer_3
  10
190.36909
  20
330.8317
  0
VERTEX
  5
cbe
  8
Layer_3
  10
189.78627
  20
331.08524
  0
VERTEX
  5
cbf
  8
Layer_3
  10
189.69006
  20
331.12851
  0
VERTEX
  5
cc0
  8
Layer_3
  10
189.11247
  20
331.39694
  0
VERTEX
  5
cc1
  8
Layer_3
  10
189.01578
  20
331.44336
  0
VERTEX
  5
cc2
  8
Layer_3
  10
188.44362
  20
331.72681
  0
VERTEX
  5
cc3
  8
Layer_3
  10
188.34763
  20
331.77579
  0
VERTEX
  5
cc4
  8
Layer_3
  10
187.77066
  20
332.07999
  0
VERTEX
  5
cc5
  8
Layer_3
  10
187.67735
  20
332.1308
  0
VERTEX
  5
cc6
  8
Layer_3
  10
187.11105
  20
332.44757
  0
VERTEX
  5
cc7
  8
Layer_3
  10
187.01855
  20
332.50067
  0
VERTEX
  5
cc8
  8
Layer_3
  10
186.46313
  20
332.82977
  0
VERTEX
  5
cc9
  8
Layer_3
  10
186.37154
  20
332.88559
  0
VERTEX
  5
cca
  8
Layer_3
  10
185.82721
  20
333.22678
  0
VERTEX
  5
ccb
  8
Layer_3
  10
185.73911
  20
333.28348
  0
VERTEX
  5
ccc
  8
Layer_3
  10
185.20587
  20
333.6362
  0
VERTEX
  5
ccd
  8
Layer_3
  10
185.11737
  20
333.69638
  0
VERTEX
  5
cce
  8
Layer_3
  10
184.59521
  20
334.06076
  0
VERTEX
  5
ccf
  8
Layer_3
  10
184.50821
  20
334.12317
  0
VERTEX
  5
cd0
  8
Layer_3
  10
183.99756
  20
334.4989
  0
VERTEX
  5
cd1
  8
Layer_3
  10
183.91367
  20
334.56223
  0
VERTEX
  5
cd2
  8
Layer_3
  10
183.41411
  20
334.94907
  0
VERTEX
  5
cd3
  8
Layer_3
  10
183.33151
  20
335.01443
  0
VERTEX
  5
cd4
  8
Layer_3
  10
182.84346
  20
335.41199
  0
VERTEX
  5
cd5
  8
Layer_3
  10
182.76225
  20
335.47989
  0
VERTEX
  5
cd6
  8
Layer_3
  10
182.28592
  20
335.88785
  0
VERTEX
  5
cd7
  8
Layer_3
  10
182.20721
  20
335.95685
  0
VERTEX
  5
cd8
  8
Layer_3
  10
181.74237
  20
336.37506
  0
VERTEX
  5
cd9
  8
Layer_3
  10
181.66498
  20
336.44614
  0
VERTEX
  5
cda
  8
Layer_3
  10
181.21185
  20
336.87436
  0
VERTEX
  5
cdb
  8
Layer_3
  10
181.13736
  20
336.94656
  0
VERTEX
  5
cdc
  8
Layer_3
  10
180.69595
  20
337.38437
  0
VERTEX
  5
cdd
  8
Layer_3
  10
180.62215
  20
337.4595
  0
VERTEX
  5
cde
  8
Layer_3
  10
180.19267
  20
337.90695
  0
VERTEX
  5
cdf
  8
Layer_3
  10
180.12257
  20
337.98193
  0
VERTEX
  5
ce0
  8
Layer_3
  10
179.70503
  20
338.43835
  0
VERTEX
  5
ce1
  8
Layer_3
  10
179.63493
  20
338.51685
  0
VERTEX
  5
ce2
  8
Layer_3
  10
179.22951
  20
338.98248
  0
VERTEX
  5
ce3
  8
Layer_3
  10
179.1636
  20
339.06009
  0
VERTEX
  5
ce4
  8
Layer_3
  10
178.77011
  20
339.53433
  0
VERTEX
  5
ce5
  8
Layer_3
  10
178.70441
  20
339.61554
  0
VERTEX
  5
ce6
  8
Layer_3
  10
178.32346
  20
340.09811
  0
VERTEX
  5
ce7
  8
Layer_3
  10
178.26135
  20
340.17871
  0
VERTEX
  5
ce8
  8
Layer_3
  10
177.89255
  20
340.66943
  0
VERTEX
  5
ce9
  8
Layer_3
  10
177.83205
  20
340.75204
  0
VERTEX
  5
cea
  8
Layer_3
  10
177.47557
  20
341.25082
  0
VERTEX
  5
ceb
  8
Layer_3
  10
177.41656
  20
341.33533
  0
VERTEX
  5
cec
  8
Layer_3
  10
177.07265
  20
341.8418
  0
VERTEX
  5
ced
  8
Layer_3
  10
177.01595
  20
341.92758
  0
VERTEX
  5
cee
  8
Layer_3
  10
176.6848
  20
342.44141
  0
VERTEX
  5
cef
  8
Layer_3
  10
176.63159
  20
342.52591
  0
VERTEX
  5
cf0
  8
Layer_3
  10
176.31277
  20
343.04678
  0
VERTEX
  5
cf1
  8
Layer_3
  10
176.25967
  20
343.13596
  0
VERTEX
  5
cf2
  8
Layer_3
  10
175.95383
  20
343.664
  0
VERTEX
  5
cf3
  8
Layer_3
  10
175.90483
  20
343.75079
  0
VERTEX
  5
cf4
  8
Layer_3
  10
175.61174
  20
344.2851
  0
VERTEX
  5
cf5
  8
Layer_3
  10
175.56345
  20
344.3757
  0
VERTEX
  5
cf6
  8
Layer_3
  10
175.28334
  20
344.91672
  0
VERTEX
  5
cf7
  8
Layer_3
  10
175.23834
  20
345.00601
  0
VERTEX
  5
cf8
  8
Layer_3
  10
174.97119
  20
345.55283
  0
VERTEX
  5
cf9
  8
Layer_3
  10
174.92809
  20
345.6441
  0
VERTEX
  5
cfa
  8
Layer_3
  10
174.6739
  20
346.19702
  0
VERTEX
  5
cfb
  8
Layer_3
  10
174.63251
  20
346.28995
  0
VERTEX
  5
cfc
  8
Layer_3
  10
174.39172
  20
346.8483
  0
VERTEX
  5
cfd
  8
Layer_3
  10
174.35323
  20
346.94049
  0
VERTEX
  5
cfe
  8
Layer_3
  10
174.12561
  20
347.50409
  0
VERTEX
  5
cff
  8
Layer_3
  10
174.08881
  20
347.59839
  0
VERTEX
  5
d00
  8
Layer_3
  10
173.87459
  20
348.16721
  0
VERTEX
  5
d01
  8
Layer_3
  10
173.84029
  20
348.26163
  0
VERTEX
  5
d02
  8
Layer_3
  10
173.63945
  20
348.83524
  0
VERTEX
  5
d03
  8
Layer_3
  10
173.60725
  20
348.93103
  0
VERTEX
  5
d04
  8
Layer_3
  10
173.42001
  20
349.50922
  0
VERTEX
  5
d05
  8
Layer_3
  10
173.39032
  20
349.60501
  0
VERTEX
  5
d06
  8
Layer_3
  10
173.21667
  20
350.18741
  0
VERTEX
  5
d07
  8
Layer_3
  10
173.18907
  20
350.28391
  0
VERTEX
  5
d08
  8
Layer_3
  10
173.02904
  20
350.87045
  0
VERTEX
  5
d09
  8
Layer_3
  10
173.00334
  20
350.96936
  0
VERTEX
  5
d0a
  8
Layer_3
  10
172.85733
  20
351.55975
  0
VERTEX
  5
d0b
  8
Layer_3
  10
172.83473
  20
351.65573
  0
VERTEX
  5
d0c
  8
Layer_3
  10
172.70232
  20
352.24942
  0
VERTEX
  5
d0d
  8
Layer_3
  10
172.68121
  20
352.35007
  0
VERTEX
  5
d0e
  8
Layer_3
  10
172.56302
  20
352.94711
  0
VERTEX
  5
d0f
  8
Layer_3
  10
172.54482
  20
353.04501
  0
VERTEX
  5
d10
  8
Layer_3
  10
172.44043
  20
353.64517
  0
VERTEX
  5
d11
  8
Layer_3
  10
172.42393
  20
353.7471
  0
VERTEX
  5
d12
  8
Layer_3
  10
172.33394
  20
354.35001
  0
VERTEX
  5
d13
  8
Layer_3
  10
172.32034
  20
354.44882
  0
VERTEX
  5
d14
  8
Layer_3
  10
172.24445
  20
355.05399
  0
VERTEX
  5
d15
  8
Layer_3
  10
172.23294
  20
355.1561
  0
VERTEX
  5
d16
  8
Layer_3
  10
172.17145
  20
355.76382
  0
VERTEX
  5
d17
  8
Layer_3
  10
172.16245
  20
355.8638
  0
VERTEX
  5
d18
  8
Layer_3
  10
172.11514
  20
356.47318
  0
VERTEX
  5
d19
  8
Layer_3
  10
172.10814
  20
356.57614
  0
SEQEND
  0
POLYLINE
  5
d1b
  8
Layer_3
  62
52
  66
1
  10
0
  20
0
  30
0
  0
VERTEX
  5
d1b
  8
Layer_3
  10
231.92773
  20
358.039
  0
VERTEX
  5
d1c
  8
Layer_3
  10
231.92773
  20
359.69342
  0
SEQEND
  0
POLYLINE
  5
d1e
  8
Layer_3
  62
52
  66
1
  10
0
  20
0
  30
0
  0
VERTEX
  5
d1e
  8
Layer_3
  10
172.05315
  20
357.94315
  0
VERTEX
  5
d1f
  8
Layer_3
  10
172.05315
  20
359.59756
  0
SEQEND
  0
CIRCLE
  5
d21
  8
Layer_3
  62
52
  10
184.00125
  20
324.44928
  30
0
  40
1.4999995
  0
CIRCLE
  5
d21
  8
Layer_3
  62
52
  10
174.18811
  20
322.50421
  30
0
  40
0.24999993
  0
CIRCLE
  5
d21
  8
Layer_3
  62
52
  10
172.01132
  20
322.16223
  30
0
  40
0.24999993
  0
CIRCLE
  5
d21
  8
Layer_3
  62
52
  10
167.59467
  20
322.16223
  30
0
  40
0.24999993
  0
CIRCLE
  5
d21
  8
Layer_3
  62
52
  10
170.01132
  20
322.16223
  30
0
  40
0.24999993
  0
CIRCLE
  5
d21
  8
Layer_3
  62
52
  10
165.23849
  20
322.16223
  30
0
  40
0.24999993
  0
CIRCLE
  5
d21
  8
Layer_3
  62
52
  10
162.94229
  20
322.16223
  30
0
  40
0.24999993
  0
CIRCLE
  5
d21
  8
Layer_3
  62
52
  10
161.30841
  20
321.15405
  30
0
  40
0.24999993
  0
CIRCLE
  5
d21
  8
Layer_3
  62
52
  10
159.73911
  20
319.99255
  30
0
  40
0.24999993
  0
CIRCLE
  5
d21
  8
Layer_3
  62
52
  10
158.64551
  20
318.16583
  30
0
  40
0.24999993
  0
CIRCLE
  5
d21
  8
Layer_3
  62
52
  10
158.15173
  20
316.34766
  30
0
  40
0.24999993
  0
CIRCLE
  5
d21
  8
Layer_3
  62
52
  10
158.51813
  20
314.33429
  30
0
  40
0.24999993
  0
CIRCLE
  5
d21
  8
Layer_3
  62
52
  10
159.09467
  20
312.55768
  30
0
  40
0.24999993
  0
CIRCLE
  5
d21
  8
Layer_3
  62
52
  10
160.24115
  20
311.16223
  30
0
  40
0.24999993
  0
CIRCLE
  5
d21
  8
Layer_3
  62
52
  10
162.01813
  20
309.80597
  30
0
  40
0.24999993
  0
CIRCLE
  5
d21
  8
Layer_3
  62
52
  10
164.12787
  20
309.41357
  30
0
  40
0.24999993
  0
CIRCLE
  5
d21
  8
Layer_3
  62
52
  10
166.22864
  20
309.41357
  30
0
  40
0.24999993
  0
CIRCLE
  5
d21
  8
Layer_3
  62
52
  10
168.35107
  20
309.41357
  30
0
  40
0.24999993
  0
CIRCLE
  5
d21
  8
Layer_3
  62
52
  10
170.24728
  20
309.41357
  30
0
  40
0.24999993
  0
CIRCLE
  5
d21
  8
Layer_3
  62
52
  10
172.30502
  20
309.41357
  30
0
  40
0.24999993
  0
CIRCLE
  5
d21
  8
Layer_3
  62
52
  10
174.47729
  20
308.80908
  30
0
  40
0.24999993
  0
CIRCLE
  5
d21
  8
Layer_3
  62
52
  10
175.75058
  20
307.34204
  30
0
  40
0.24999993
  0
CIRCLE
  5
d21
  8
Layer_3
  62
52
  10
177.47705
  20
306.13922
  30
0
  40
0.24999993
  0
CIRCLE
  5
d21
  8
Layer_3
  62
52
  10
179.41428
  20
305.08832
  30
0
  40
0.24999993
  0
CIRCLE
  5
d21
  8
Layer_3
  62
52
  10
181.77496
  20
304.50006
  30
0
  40
0.24999993
  0
CIRCLE
  5
d21
  8
Layer_3
  62
52
  10
193.10132
  20
323.16449
  30
0
  40
0.24999993
  0
CIRCLE
  5
d21
  8
Layer_3
  62
52
  10
193.10962
  20
308.86688
  30
0
  40
0.24999993
  0
CIRCLE
  5
d21
  8
Layer_3
  62
52
  10
185.81195
  20
304.55792
  30
0
  40
0.24999993
  0
CIRCLE
  5
d21
  8
Layer_3
  62
52
  10
188.17261
  20
305.14612
  30
0
  40
0.24999993
  0
CIRCLE
  5
d21
  8
Layer_3
  62
52
  10
190.10986
  20
306.19708
  30
0
  40
0.24999993
  0
CIRCLE
  5
d21
  8
Layer_3
  62
52
  10
191.83633
  20
307.39984
  30
0
  40
0.24999993
  0
CIRCLE
  5
d21
  8
Layer_3
  62
52
  10
183.763
  20
304.37469
  30
0
  40
0.24999993
  0
CIRCLE
  5
d21
  8
Layer_3
  62
52
  10
184.00125
  20
307.42987
  30
0
  40
1.4999995
  0
CIRCLE
  5
d21
  8
Layer_3
  62
52
  10
195.29593
  20
322.23297
  30
0
  40
0.24999993
  0
CIRCLE
  5
d21
  8
Layer_3
  62
52
  10
199.71259
  20
322.23297
  30
0
  40
0.24999993
  0
CIRCLE
  5
d21
  8
Layer_3
  62
52
  10
197.29593
  20
322.23297
  30
0
  40
0.24999993
  0
CIRCLE
  5
d21
  8
Layer_3
  62
52
  10
202.06876
  20
322.23297
  30
0
  40
0.24999993
  0
CIRCLE
  5
d21
  8
Layer_3
  62
52
  10
204.36493
  20
322.23297
  30
0
  40
0.24999993
  0
CIRCLE
  5
d21
  8
Layer_3
  62
52
  10
205.99887
  20
321.22479
  30
0
  40
0.24999993
  0
CIRCLE
  5
d21
  8
Layer_3
  62
52
  10
207.56818
  20
320.06329
  30
0
  40
0.24999993
  0
CIRCLE
  5
d21
  8
Layer_3
  62
52
  10
208.66177
  20
318.23663
  30
0
  40
0.24999993
  0
CIRCLE
  5
d21
  8
Layer_3
  62
52
  10
209.15555
  20
316.4184
  30
0
  40
0.24999993
  0
CIRCLE
  5
d21
  8
Layer_3
  62
52
  10
208.78915
  20
314.40503
  30
0
  40
0.24999993
  0
CIRCLE
  5
d21
  8
Layer_3
  62
52
  10
208.21262
  20
312.62848
  30
0
  40
0.24999993
  0
CIRCLE
  5
d21
  8
Layer_3
  62
52
  10
207.06613
  20
311.23297
  30
0
  40
0.24999993
  0
CIRCLE
  5
d21
  8
Layer_3
  62
52
  10
205.28915
  20
309.87677
  30
0
  40
0.24999993
  0
CIRCLE
  5
d21
  8
Layer_3
  62
52
  10
203.17938
  20
309.48431
  30
0
  40
0.24999993
  0
CIRCLE
  5
d21
  8
Layer_3
  62
52
  10
201.07858
  20
309.48431
  30
0
  40
0.24999993
  0
CIRCLE
  5
d21
  8
Layer_3
  62
52
  10
198.95618
  20
309.48431
  30
0
  40
0.24999993
  0
CIRCLE
  5
d21
  8
Layer_3
  62
52
  10
197.05997
  20
309.48431
  30
0
  40
0.24999993
  0
CIRCLE
  5
d21
  8
Layer_3
  62
52
  10
195.00223
  20
309.48431
  30
0
  40
0.24999993
  0
CIRCLE
  5
d21
  8
Layer_3
  62
52
  10
203.41205
  20
316.19702
  30
0
  40
0.9999997
  0
CIRCLE
  5
d21
  8
Layer_3
  62
52
  10
164.86462
  20
316.17041
  30
0
  40
0.9999997
  0
POLYLINE
  5
d21
  8
Layer_3
  62
52
  66
1
  10
0
  20
0
  30
0
  0
VERTEX
  5
d21
  8
Layer_3
  10
183.06775
  20
328.94955
  42
0.14918915
  0
VERTEX
  5
d22
  8
Layer_3
  10
175.88782
  20
326.36523
  42
0.065910064
  0
VERTEX
  5
d23
  8
Layer_3
  10
173.46625
  20
324
  0
VERTEX
  5
d24
  8
Layer_3
  10
171.82191
  20
324
  0
VERTEX
  5
d25
  8
Layer_3
  10
170.17809
  20
324
  0
VERTEX
  5
d26
  8
Layer_3
  10
168.53374
  20
324
  0
VERTEX
  5
d27
  8
Layer_3
  10
166.88992
  20
324
  0
VERTEX
  5
d28
  8
Layer_3
  10
164.49728
  20
324
  0
VERTEX
  5
d29
  8
Layer_3
  10
164.49728
  20
323.96484
  0
VERTEX
  5
d2a
  8
Layer_3
  10
164.17484
  20
323.95709
  42
0.39934707
  0
VERTEX
  5
d2b
  8
Layer_3
  10
156.49727
  20
315.87335
  42
0.23006064
  0
VERTEX
  5
d2c
  8
Layer_3
  10
159.58907
  20
309.50787
  42
0.15506825
  0
VERTEX
  5
d2d
  8
Layer_3
  10
164.17484
  20
307.78912
  0
VERTEX
  5
d2e
  8
Layer_3
  10
164.49728
  20
307.78137
  0
VERTEX
  5
d2f
  8
Layer_3
  10
164.49728
  20
307.74622
  0
VERTEX
  5
d30
  8
Layer_3
  10
173.45798
  20
307.74622
  0
VERTEX
  5
d31
  8
Layer_3
  10
173.61664
  20
307.54517
  0
VERTEX
  5
d32
  8
Layer_3
  10
173.61664
  20
307.54309
  42
0.1947749
  0
VERTEX
  5
d33
  8
Layer_3
  10
182.24142
  20
302.86377
  42
-0.18499307
  0
VERTEX
  5
d34
  8
Layer_3
  10
182.16858
  20
303.06116
  42
-0.01581348
  0
VERTEX
  5
d35
  8
Layer_3
  10
181.3681
  20
303.18158
  42
-0.029059025
  0
VERTEX
  5
d36
  8
Layer_3
  10
179.91547
  20
303.53918
  42
-0.028940391
  0
VERTEX
  5
d37
  8
Layer_3
  10
178.51814
  20
304.06006
  42
-0.028938445
  0
VERTEX
  5
d38
  8
Layer_3
  10
177.19006
  20
304.73962
  42
-0.02905102
  0
VERTEX
  5
d39
  8
Layer_3
  10
175.9462
  20
305.57007
  42
-0.029266994
  0
VERTEX
  5
d3a
  8
Layer_3
  10
174.7995
  20
306.54675
  42
-0.029530335
  0
VERTEX
  5
d3b
  8
Layer_3
  10
173.76495
  20
307.66193
  0
VERTEX
  5
d3c
  8
Layer_3
  10
173.76283
  20
307.66406
  0
VERTEX
  5
d3d
  8
Layer_3
  10
173.54993
  20
307.93585
  0
VERTEX
  5
d3e
  8
Layer_3
  10
171.33353
  20
307.93585
  0
VERTEX
  5
d3f
  8
Layer_3
  10
169.11713
  20
307.93585
  0
VERTEX
  5
d40
  8
Layer_3
  10
166.90123
  20
307.93585
  0
VERTEX
  5
d41
  8
Layer_3
  10
164.68483
  20
307.93585
  0
VERTEX
  5
d42
  8
Layer_3
  10
164.68483
  20
307.96478
  0
VERTEX
  5
d43
  8
Layer_3
  10
164.18098
  20
307.97876
  42
-0.15493937
  0
VERTEX
  5
d44
  8
Layer_3
  10
159.70633
  20
309.65616
  42
-0.23005244
  0
VERTEX
  5
d45
  8
Layer_3
  10
156.6848
  20
315.87335
  42
-0.3992103
  0
VERTEX
  5
d46
  8
Layer_3
  10
164.18098
  20
323.76746
  0
VERTEX
  5
d47
  8
Layer_3
  10
164.1846
  20
323.76746
  0
VERTEX
  5
d48
  8
Layer_3
  10
164.68484
  20
323.7814
  0
VERTEX
  5
d49
  8
Layer_3
  10
164.68484
  20
323.81085
  0
VERTEX
  5
d4a
  8
Layer_3
  10
166.88986
  20
323.81085
  0
VERTEX
  5
d4b
  8
Layer_3
  10
173.54993
  20
323.81085
  0
VERTEX
  5
d4c
  8
Layer_3
  10
173.57938
  20
323.84753
  42
-0.066939926
  0
VERTEX
  5
d4d
  8
Layer_3
  10
175.99939
  20
326.21484
  42
-0.048890683
  0
VERTEX
  5
d4e
  8
Layer_3
  10
178.1636
  20
327.52484
  42
-0.04806238
  0
VERTEX
  5
d4f
  8
Layer_3
  10
180.47354
  20
328.36819
  42
-0.04709516
  0
VERTEX
  5
d50
  8
Layer_3
  10
182.86307
  20
328.75317
  42
-0.0059366396
  0
VERTEX
  5
d51
  8
Layer_3
  10
183.17105
  20
328.76663
  42
-0.0073939992
  0
VERTEX
  5
d52
  8
Layer_3
  10
183.16379
  20
328.78729
  42
-0.0024627069
  0
VERTEX
  5
d53
  8
Layer_3
  10
183.16273
  20
328.7966
  42
-0.15040615
  0
VERTEX
  5
d54
  8
Layer_3
  10
183.06766
  20
328.94955
  0
VERTEX
  5
d55
  8
Layer_3
  10
183.06775
  20
328.94955
  0
SEQEND
  0
POLYLINE
  5
d57
  8
Layer_3
  62
52
  66
1
  10
0
  20
0
  30
0
  0
VERTEX
  5
d57
  8
Layer_3
  10
184.98856
  20
328.90305
  42
-0.17873712
  0
VERTEX
  5
d58
  8
Layer_3
  10
185.02112
  20
328.71185
  42
-0.0048741935
  0
VERTEX
  5
d59
  8
Layer_3
  10
185.26553
  20
328.68808
  42
-0.046473243
  0
VERTEX
  5
d5a
  8
Layer_3
  10
187.61475
  20
328.18063
  42
-0.047084734
  0
VERTEX
  5
d5b
  8
Layer_3
  10
189.84459
  20
327.23859
  42
-0.048051612
  0
VERTEX
  5
d5c
  8
Layer_3
  10
191.88788
  20
325.8707
  42
-0.048892286
  0
VERTEX
  5
d5d
  8
Layer_3
  10
193.67899
  20
324.08423
  0
VERTEX
  5
d5e
  8
Layer_3
  10
193.67899
  20
324.08212
  42
0.41421356
  0
VERTEX
  5
d5f
  8
Layer_3
  10
193.68109
  20
324.08212
  0
VERTEX
  5
d60
  8
Layer_3
  10
193.894
  20
323.81082
  0
VERTEX
  5
d61
  8
Layer_3
  10
203.52081
  20
323.81082
  0
VERTEX
  5
d62
  8
Layer_3
  10
203.52081
  20
323.76794
  0
VERTEX
  5
d63
  8
Layer_3
  10
203.60864
  20
323.76175
  42
-0.38150826
  0
VERTEX
  5
d64
  8
Layer_3
  10
211.01131
  20
316.27951
  42
-0.3994556
  0
VERTEX
  5
d65
  8
Layer_3
  10
203.92336
  20
308.00766
  0
VERTEX
  5
d66
  8
Layer_3
  10
203.52081
  20
307.97665
  0
VERTEX
  5
d67
  8
Layer_3
  10
203.52081
  20
307.93585
  0
VERTEX
  5
d68
  8
Layer_3
  10
193.894
  20
307.93585
  0
VERTEX
  5
d69
  8
Layer_3
  10
193.86453
  20
307.89862
  42
-0.20399421
  0
VERTEX
  5
d6a
  8
Layer_3
  10
185.04028
  20
303.03326
  0
VERTEX
  5
d6b
  8
Layer_3
  10
184.62738
  20
303.00281
  42
-0.0084279589
  0
VERTEX
  5
d6c
  8
Layer_3
  10
184.67648
  20
302.81622
  0
VERTEX
  5
d6d
  8
Layer_3
  10
184.81032
  20
302.8266
  42
-0.058686352
  0
VERTEX
  5
d6e
  8
Layer_3
  10
184.8589
  20
302.90308
  0
VERTEX
  5
d6f
  8
Layer_3
  10
184.87472
  20
302.89342
  0
VERTEX
  5
d70
  8
Layer_3
  10
184.86714
  20
302.83125
  0
VERTEX
  5
d71
  8
Layer_3
  10
185.05991
  20
302.8457
  42
0.050470844
  0
VERTEX
  5
d72
  8
Layer_3
  10
187.62872
  20
303.37231
  42
0.049911187
  0
VERTEX
  5
d73
  8
Layer_3
  10
190.01721
  20
304.39032
  42
0.049835255
  0
VERTEX
  5
d74
  8
Layer_3
  10
192.15714
  20
305.86102
  42
0.050250865
  0
VERTEX
  5
d75
  8
Layer_3
  10
193.97977
  20
307.74622
  0
VERTEX
  5
d76
  8
Layer_3
  10
203.71045
  20
307.74622
  0
VERTEX
  5
d77
  8
Layer_3
  10
203.71045
  20
307.80304
  0
VERTEX
  5
d78
  8
Layer_3
  10
203.94092
  20
307.82062
  0
VERTEX
  5
d79
  8
Layer_3
  10
203.9425
  20
307.82062
  42
0.39945529
  0
VERTEX
  5
d7a
  8
Layer_3
  10
211.19839
  20
316.28934
  42
0.37815791
  0
VERTEX
  5
d7b
  8
Layer_3
  10
203.71048
  20
323.92609
  0
VERTEX
  5
d7c
  8
Layer_3
  10
203.71048
  20
324
  0
VERTEX
  5
d7d
  8
Layer_3
  10
193.98549
  20
324
  0
VERTEX
  5
d7e
  8
Layer_3
  10
193.82736
  20
324.20154
  0
VERTEX
  5
d7f
  8
Layer_3
  10
193.82526
  20
324.20154
  42
0.19868743
  0
VERTEX
  5
d80
  8
Layer_3
  10
184.98859
  20
328.90305
  0
VERTEX
  5
d81
  8
Layer_3
  10
184.98856
  20
328.90305
  0
SEQEND
  0
POLYLINE
  5
d83
  8
Layer_3
  62
52
  66
1
  10
0
  20
0
  30
0
  0
VERTEX
  5
d83
  8
Layer_3
  10
182.72925
  20
303.00748
  42
-0.002782032
  0
VERTEX
  5
d84
  8
Layer_3
  10
182.73648
  20
302.99872
  42
0.018049621
  0
VERTEX
  5
d85
  8
Layer_3
  10
182.73596
  20
303.00696
  42
-0.0089822849
  0
VERTEX
  5
d86
  8
Layer_3
  10
182.72922
  20
303.00748
  0
VERTEX
  5
d87
  8
Layer_3
  10
182.72925
  20
303.00748
  0
SEQEND
  0
POLYLINE
  5
d89
  8
Layer_3
  62
52
  66
1
  10
0
  20
0
  30
0
  0
VERTEX
  5
d89
  8
Layer_3
  10
184.39169
  20
302.98526
  42
0.012818401
  0
VERTEX
  5
d8a
  8
Layer_3
  10
184.4046
  20
302.84058
  42
-0.015748221
  0
VERTEX
  5
d8b
  8
Layer_3
  10
184.40671
  20
302.85449
  42
0.0024538427
  0
VERTEX
  5
d8c
  8
Layer_3
  10
184.39429
  20
302.98523
  0
VERTEX
  5
d8d
  8
Layer_3
  10
184.39169
  20
302.98526
  0
SEQEND
  0
POLYLINE
  5
d8f
  8
Layer_3
  62
52
  66
1
  10
0
  20
0
  30
0
  0
VERTEX
  5
d8f
  8
Layer_3
  10
184.40668
  20
302.85452
  42
0.00083539876
  0
VERTEX
  5
d90
  8
Layer_3
  10
184.40826
  20
302.83954
  0
VERTEX
  5
d91
  8
Layer_3
  10
184.41548
  20
302.91809
  42
0.005620347
  0
VERTEX
  5
d92
  8
Layer_3
  10
184.40671
  20
302.85455
  0
VERTEX
  5
d93
  8
Layer_3
  10
184.40668
  20
302.85452
  0
SEQEND
  0
POLYLINE
  5
d95
  8
Layer_3
  62
52
  66
1
  10
0
  20
0
  30
0
  0
VERTEX
  5
d95
  8
Layer_3
  10
184.40826
  20
302.83954
  0
VERTEX
  5
d96
  8
Layer_3
  10
184.40668
  20
302.82507
  42
-0.0045025
  0
VERTEX
  5
d97
  8
Layer_3
  10
184.4108
  20
302.79614
  0
VERTEX
  5
d98
  8
Layer_3
  10
184.41238
  20
302.79614
  42
-0.0013535067
  0
VERTEX
  5
d99
  8
Layer_3
  10
184.40826
  20
302.83954
  0
SEQEND
  0
POLYLINE
  5
d9b
  8
Layer_3
  62
52
  66
1
  10
0
  20
0
  30
0
  0
VERTEX
  5
d9b
  8
Layer_3
  10
184.40668
  20
302.82507
  42
-0.00096017579
  0
VERTEX
  5
d9c
  8
Layer_3
  10
184.40454
  20
302.84058
  42
-0.001995993
  0
VERTEX
  5
d9d
  8
Layer_3
  10
184.40092
  20
302.79562
  0
VERTEX
  5
d9e
  8
Layer_3
  10
184.40402
  20
302.79562
  0
VERTEX
  5
d9f
  8
Layer_3
  10
184.40668
  20
302.82507
  0
SEQEND
  0
POLYLINE
  5
da1
  8
Layer_3
  62
52
  66
1
  10
0
  20
0
  30
0
  0
VERTEX
  5
da1
  8
Layer_3
  10
183.19226
  20
302.98322
  42
0.00080410133
  0
VERTEX
  5
da2
  8
Layer_3
  10
183.23981
  20
302.94342
  42
-0.008260215
  0
VERTEX
  5
da3
  8
Layer_3
  10
183.23981
  20
302.94604
  42
-0.0082628516
  0
VERTEX
  5
da4
  8
Layer_3
  10
183.22534
  20
302.98172
  42
0.00034499587
  0
VERTEX
  5
da5
  8
Layer_3
  10
183.19226
  20
302.98331
  0
VERTEX
  5
da6
  8
Layer_3
  10
183.19226
  20
302.98322
  0
SEQEND
  0
POLYLINE
  5
da8
  8
Layer_3
  62
52
  66
1
  10
0
  20
0
  30
0
  0
VERTEX
  5
da8
  8
Layer_3
  10
184.18445
  20
302.97961
  42
0.001979704
  0
VERTEX
  5
da9
  8
Layer_3
  10
184.15552
  20
302.97906
  42
-0.033563655
  0
VERTEX
  5
daa
  8
Layer_3
  10
184.1431
  20
302.91913
  42
0.017908415
  0
VERTEX
  5
dab
  8
Layer_3
  10
184.18445
  20
302.97955
  0
VERTEX
  5
dac
  8
Layer_3
  10
184.18445
  20
302.97961
  0
SEQEND
  0
POLYLINE
  5
dae
  8
Layer_3
  62
52
  66
1
  10
0
  20
0
  30
0
  0
VERTEX
  5
dae
  8
Layer_3
  10
183.36435
  20
302.9765
  42
0.00045071081
  0
VERTEX
  5
daf
  8
Layer_3
  10
183.4212
  20
302.91913
  42
-0.0013047986
  0
VERTEX
  5
db0
  8
Layer_3
  10
183.42226
  20
302.97443
  42
0.0001865019
  0
VERTEX
  5
db1
  8
Layer_3
  10
183.36438
  20
302.97653
  0
VERTEX
  5
db2
  8
Layer_3
  10
183.36435
  20
302.9765
  0
SEQEND
  0
POLYLINE
  5
db4
  8
Layer_3
  62
52
  66
1
  10
0
  20
0
  30
0
  0
VERTEX
  5
db4
  8
Layer_3
  10
183.4212
  20
302.91913
  42
-0.0015050847
  0
VERTEX
  5
db5
  8
Layer_3
  10
183.41855
  20
302.79459
  42
0.0032240627
  0
VERTEX
  5
db6
  8
Layer_3
  10
183.43097
  20
302.78424
  42
-0.00032535187
  0
VERTEX
  5
db7
  8
Layer_3
  10
183.46609
  20
302.78317
  42
-0.00055878204
  0
VERTEX
  5
db8
  8
Layer_3
  10
183.4816
  20
302.85864
  42
-4.735742e-05
  0
VERTEX
  5
db9
  8
Layer_3
  10
183.42114
  20
302.91907
  0
VERTEX
  5
dba
  8
Layer_3
  10
183.4212
  20
302.91913
  0
SEQEND
  0
POLYLINE
  5
dbc
  8
Layer_3
  62
52
  66
1
  10
0
  20
0
  30
0
  0
VERTEX
  5
dbc
  8
Layer_3
  10
183.48166
  20
302.85867
  42
0.00050692996
  0
VERTEX
  5
dbd
  8
Layer_3
  10
183.56071
  20
302.7796
  42
-0.0023208201
  0
VERTEX
  5
dbe
  8
Layer_3
  10
183.60001
  20
302.77802
  42
0.0046647921
  0
VERTEX
  5
dbf
  8
Layer_3
  10
183.55762
  20
302.96973
  42
-0.00092821315
  0
VERTEX
  5
dc0
  8
Layer_3
  10
183.50853
  20
302.97131
  42
0.0075044834
  0
VERTEX
  5
dc1
  8
Layer_3
  10
183.48166
  20
302.85867
  0
SEQEND
  0
ENDSEC
  0
EOF
